ISO-10303-21;
HEADER;
FILE_DESCRIPTION (( 'STEP AP203' ),
    '1' );
FILE_NAME ('339052.step',
    '2021-11-18T10:46:11',
    ( '' ),
    ( '' ),
    'SwSTEP 2.0',
    'SolidWorks 2019',
    '' );
FILE_SCHEMA (( 'CONFIG_CONTROL_DESIGN' ));
ENDSEC;

DATA;
#1 = CC_DESIGN_APPROVAL ( #11, ( #48 ) ) ;
#2 = CARTESIAN_POINT ( 'NONE',  ( -1.282749433769087757E-30, 0.0000000000000000000, -3.673940397442059868E-16 ) ) ;
#3 = PLANE ( 'NONE',  #98 ) ;
#4 = CARTESIAN_POINT ( 'NONE',  ( 2.513866563967056016E-13, 2.999519565323700984E-32, 72.00000000000000000 ) ) ;
#5 = FACE_OUTER_BOUND ( 'NONE', #174, .T. ) ;
#6 = PERSON_AND_ORGANIZATION_ROLE ( 'design_owner' ) ;
#7 = CARTESIAN_POINT ( 'NONE',  ( 7.681258945454893382E-14, 3.749399456654640188E-32, 22.00000000000000000 ) ) ;
#8 = DIRECTION ( 'NONE',  ( 1.000000000000000000, 0.0000000000000000000, -3.491481338843133750E-15 ) ) ;
#9 = ORIENTED_EDGE ( 'NONE', *, *, #191, .F. ) ;
#10 = EDGE_LOOP ( 'NONE', ( #9 ) ) ;
#11 = APPROVAL ( #79, 'UNSPECIFIED' ) ;
#12 = EDGE_LOOP ( 'NONE', ( #62 ) ) ;
#13 = PERSON_AND_ORGANIZATION ( #153, #157 ) ;
#14 = DATE_TIME_ROLE ( 'classification_date' ) ;
#15 = COORDINATED_UNIVERSAL_TIME_OFFSET ( 1, 0, .AHEAD. ) ;
#16 = AXIS2_PLACEMENT_3D ( 'NONE', #64, #60, #21 ) ;
#17 = FACE_OUTER_BOUND ( 'NONE', #116, .T. ) ;
#18 = ADVANCED_FACE ( 'NONE', ( #77, #229 ), #3, .T. ) ;
#19 = DIRECTION ( 'NONE',  ( 0.0000000000000000000, 1.000000000000000000, 0.0000000000000000000 ) ) ;
#20 = SECURITY_CLASSIFICATION ( '', '', #178 ) ;
#21 = DIRECTION ( 'NONE',  ( 0.0000000000000000000, 1.000000000000000000, 0.0000000000000000000 ) ) ;
#22 = CC_DESIGN_SECURITY_CLASSIFICATION ( #20, ( #245 ) ) ;
#23 = CARTESIAN_POINT ( 'NONE',  ( 3.491481338843129805E-15, 0.0000000000000000000, 0.9999999999999988898 ) ) ;
#24 = PLANE ( 'NONE',  #185 ) ;
#25 = FACE_OUTER_BOUND ( 'NONE', #254, .T. ) ;
#26 = FACE_OUTER_BOUND ( 'NONE', #197, .T. ) ;
#27 = CC_DESIGN_PERSON_AND_ORGANIZATION_ASSIGNMENT ( #138, #57, ( #245 ) ) ;
#28 = AXIS2_PLACEMENT_3D ( 'NONE', #65, #126, #83 ) ;
#29 = CARTESIAN_POINT ( 'NONE',  ( 1.047444401652940007E-13, -3.673940397442059178E-15, 30.00000000000000000 ) ) ;
#30 = PLANE ( 'NONE',  #256 ) ;
#31 = CARTESIAN_POINT ( 'NONE',  ( -1.068957861474239564E-30, 3.749399456654644020E-32, -3.061616997868383141E-16 ) ) ;
#32 = ORIENTED_EDGE ( 'NONE', *, *, #127, .F. ) ;
#33 = ADVANCED_FACE ( 'NONE', ( #213 ), #30, .T. ) ;
#34 = CALENDAR_DATE ( 2021, 18, 11 ) ;
#35 = CC_DESIGN_PERSON_AND_ORGANIZATION_ASSIGNMENT ( #101, #145, ( #48 ) ) ;
#36 = LOCAL_TIME ( 11, 46, 11.00000000000000000, #15 ) ;
#37 = APPROVAL_PERSON_ORGANIZATION ( #13, #167, #253 ) ;
#38 = FACE_BOUND ( 'NONE', #193, .T. ) ;
#39 = EDGE_LOOP ( 'NONE', ( #217 ) ) ;
#40 = ADVANCED_FACE ( 'NONE', ( #17, #220 ), #56, .T. ) ;
#41 = VERTEX_POINT ( 'NONE', #88 ) ;
#42 =( GEOMETRIC_REPRESENTATION_CONTEXT ( 3 ) GLOBAL_UNCERTAINTY_ASSIGNED_CONTEXT ( ( #199 ) ) GLOBAL_UNIT_ASSIGNED_CONTEXT ( ( #261, #129, #194 ) ) REPRESENTATION_CONTEXT ( 'NONE', 'WORKASPACE' ) );
#43 = SHAPE_DEFINITION_REPRESENTATION ( #196, #247 ) ;
#44 = DIRECTION ( 'NONE',  ( -3.491481338843133355E-15, 0.0000000000000000000, -1.000000000000000000 ) ) ;
#45 = CIRCLE ( 'NONE', #148, 4.000000000000000000 ) ;
#46 = VERTEX_POINT ( 'NONE', #136 ) ;
#47 = DIRECTION ( 'NONE',  ( 1.000000000000000000, 0.0000000000000000000, -3.491481338843133355E-15 ) ) ;
#48 = PRODUCT_DEFINITION ( 'UNKNOWN', '', #245, #141 ) ;
#49 = DATE_AND_TIME ( #234, #36 ) ;
#50 = ORIENTED_EDGE ( 'NONE', *, *, #53, .F. ) ;
#51 = PERSON_AND_ORGANIZATION ( #153, #157 ) ;
#52 = AXIS2_PLACEMENT_3D ( 'NONE', #29, #246, #171 ) ;
#53 = EDGE_CURVE ( 'NONE', #112, #112, #173, .T. ) ;
#54 = COORDINATED_UNIVERSAL_TIME_OFFSET ( 1, 0, .AHEAD. ) ;
#55 = COORDINATED_UNIVERSAL_TIME_OFFSET ( 1, 0, .AHEAD. ) ;
#56 = CYLINDRICAL_SURFACE ( 'NONE', #241, 5.000000000000000000 ) ;
#57 = PERSON_AND_ORGANIZATION_ROLE ( 'design_supplier' ) ;
#58 = APPROVAL_DATE_TIME ( #49, #11 ) ;
#59 = PRODUCT ( '339052', '339052', '', ( #137 ) ) ;
#60 = DIRECTION ( 'NONE',  ( -3.491481338843133355E-15, 1.224646799147353207E-16, -1.000000000000000000 ) ) ;
#61 = ADVANCED_FACE ( 'NONE', ( #25, #132 ), #108, .T. ) ;
#62 = ORIENTED_EDGE ( 'NONE', *, *, #53, .T. ) ;
#63 = DIRECTION ( 'NONE',  ( 0.0000000000000000000, 1.000000000000000000, 0.0000000000000000000 ) ) ;
#64 = CARTESIAN_POINT ( 'NONE',  ( 2.478951750578623799E-13, -8.694992273946204985E-15, 70.99999999999998579 ) ) ;
#65 = CARTESIAN_POINT ( 'NONE',  ( 1.047444401652940007E-13, 0.0000000000000000000, 30.00000000000000000 ) ) ;
#66 = CARTESIAN_POINT ( 'NONE',  ( 5.000000000000002665, 0.0000000000000000000, 0.9999999999999813483 ) ) ;
#67 = CARTESIAN_POINT ( 'NONE',  ( 0.0000000000000000000, 0.0000000000000000000, 0.0000000000000000000 ) ) ;
#68 = FACE_OUTER_BOUND ( 'NONE', #71, .T. ) ;
#69 = CC_DESIGN_PERSON_AND_ORGANIZATION_ASSIGNMENT ( #95, #164, ( #245 ) ) ;
#70 = CYLINDRICAL_SURFACE ( 'NONE', #251, 4.650000000000000355 ) ;
#71 = EDGE_LOOP ( 'NONE', ( #190 ) ) ;
#72 = VERTEX_POINT ( 'NONE', #156 ) ;
#73 = CARTESIAN_POINT ( 'NONE',  ( 7.681258945454893382E-14, -2.694222958124176809E-15, 22.00000000000000000 ) ) ;
#74 = EDGE_LOOP ( 'NONE', ( #50 ) ) ;
#75 = LOCAL_TIME ( 11, 46, 11.00000000000000000, #54 ) ;
#76 = EDGE_LOOP ( 'NONE', ( #263 ) ) ;
#77 = FACE_OUTER_BOUND ( 'NONE', #93, .T. ) ;
#78 = EDGE_LOOP ( 'NONE', ( #232 ) ) ;
#79 = APPROVAL_STATUS ( 'not_yet_approved' ) ;
#80 = MANIFOLD_SOLID_BREP ( 'Corps-Déplacer/Copier1[1]', #169 ) ;
#81 = MANIFOLD_SOLID_BREP ( 'Corps-Déplacer/Copier1[2]', #200 ) ;
#82 = CARTESIAN_POINT ( 'NONE',  ( 7.681258945454893382E-14, 0.0000000000000000000, 22.00000000000000000 ) ) ;
#83 = DIRECTION ( 'NONE',  ( 1.000000000000000000, 0.0000000000000000000, -3.730588120380230251E-15 ) ) ;
#84 = ADVANCED_FACE ( 'NONE', ( #68, #113 ), #70, .T. ) ;
#85 = DIRECTION ( 'NONE',  ( -3.491481338843133355E-15, 1.224646799147353207E-16, -1.000000000000000000 ) ) ;
#86 = CIRCLE ( 'NONE', #181, 3.999999999999998224 ) ;
#87 = EDGE_CURVE ( 'NONE', #72, #72, #97, .T. ) ;
#88 = CARTESIAN_POINT ( 'NONE',  ( 4.650000000000077627, 0.0000000000000000000, 21.99999999999998224 ) ) ;
#89 = AXIS2_PLACEMENT_3D ( 'NONE', #203, #105, #63 ) ;
#90 = EDGE_LOOP ( 'NONE', ( #149 ) ) ;
#91 = EDGE_CURVE ( 'NONE', #46, #46, #118, .T. ) ;
#92 = APPROVAL_ROLE ( '' ) ;
#93 = EDGE_LOOP ( 'NONE', ( #160 ) ) ;
#94 = CC_DESIGN_APPROVAL ( #184, ( #20 ) ) ;
#95 = PERSON_AND_ORGANIZATION ( #153, #157 ) ;
#96 = COORDINATED_UNIVERSAL_TIME_OFFSET ( 1, 0, .AHEAD. ) ;
#97 = CIRCLE ( 'NONE', #240, 5.000000000000000000 ) ;
#98 = AXIS2_PLACEMENT_3D ( 'NONE', #175, #44, #134 ) ;
#99 = DIRECTION ( 'NONE',  ( -4.275831445896958607E-31, -1.000000000000000000, -1.224646799147353207E-16 ) ) ;
#100 = ADVANCED_FACE ( 'NONE', ( #5, #176 ), #226, .T. ) ;
#101 = PERSON_AND_ORGANIZATION ( #153, #157 ) ;
#102 = DIRECTION ( 'NONE',  ( 1.000000000000000000, 0.0000000000000000000, -3.512815038853035155E-15 ) ) ;
#103 = CC_DESIGN_APPROVAL ( #167, ( #245 ) ) ;
#104 = DIRECTION ( 'NONE',  ( -4.275831445896958607E-31, -1.000000000000000000, -1.224646799147353207E-16 ) ) ;
#105 = DIRECTION ( 'NONE',  ( -3.491481338843133355E-15, 1.224646799147353207E-16, -1.000000000000000000 ) ) ;
#106 = DIRECTION ( 'NONE',  ( 3.491481338843133355E-15, -0.0000000000000000000, 1.000000000000000000 ) ) ;
#107 = APPLICATION_CONTEXT ( 'configuration controlled 3d designs of mechanical parts and assemblies' ) ;
#108 = TOROIDAL_SURFACE ( 'NONE', #152, 4.000000000000000000, 0.9999999999999995559 ) ;
#109 = APPROVAL_DATE_TIME ( #208, #184 ) ;
#110 = VERTEX_POINT ( 'NONE', #170 ) ;
#111 = PRODUCT_RELATED_PRODUCT_CATEGORY ( 'detail', '', ( #59 ) ) ;
#112 = VERTEX_POINT ( 'NONE', #128 ) ;
#113 = FACE_OUTER_BOUND ( 'NONE', #74, .T. ) ;
#114 = DIRECTION ( 'NONE',  ( 3.491481338843133355E-15, -0.0000000000000000000, 1.000000000000000000 ) ) ;
#115 = APPLICATION_CONTEXT ( 'configuration controlled 3d designs of mechanical parts and assemblies' ) ;
#116 = EDGE_LOOP ( 'NONE', ( #155 ) ) ;
#117 = ORIENTED_EDGE ( 'NONE', *, *, #91, .T. ) ;
#118 = CIRCLE ( 'NONE', #52, 4.999999999999999112 ) ;
#119 = COORDINATED_UNIVERSAL_TIME_OFFSET ( 1, 0, .AHEAD. ) ;
#120 = DATE_AND_TIME ( #182, #124 ) ;
#121 = DIRECTION ( 'NONE',  ( 3.491481338843133355E-15, -1.224646799147353207E-16, 1.000000000000000000 ) ) ;
#122 = AXIS2_PLACEMENT_3D ( 'NONE', #189, #192, #225 ) ;
#123 = FACE_OUTER_BOUND ( 'NONE', #90, .T. ) ;
#124 = LOCAL_TIME ( 11, 46, 11.00000000000000000, #96 ) ;
#125 = CARTESIAN_POINT ( 'NONE',  ( 2.513866563967056016E-13, -8.817456953860941711E-15, 72.00000000000000000 ) ) ;
#126 = DIRECTION ( 'NONE',  ( 3.491481338843133355E-15, -0.0000000000000000000, 1.000000000000000000 ) ) ;
#127 = EDGE_CURVE ( 'NONE', #110, #110, #45, .T. ) ;
#128 = CARTESIAN_POINT ( 'NONE',  ( 4.650000000000105160, 0.0000000000000000000, 29.99999999999998224 ) ) ;
#129 =( NAMED_UNIT ( * ) PLANE_ANGLE_UNIT ( ) SI_UNIT ( $, .RADIAN. ) );
#130 = DIRECTION ( 'NONE',  ( 1.000000000000000000, 0.0000000000000000000, -3.491481338843133355E-15 ) ) ;
#131 = ORIENTED_EDGE ( 'NONE', *, *, #238, .T. ) ;
#132 = FACE_OUTER_BOUND ( 'NONE', #10, .T. ) ;
#133 = PERSON_AND_ORGANIZATION ( #153, #157 ) ;
#134 = DIRECTION ( 'NONE',  ( -1.000000000000000000, 0.0000000000000000000, 3.491481338843133355E-15 ) ) ;
#135 = AXIS2_PLACEMENT_3D ( 'NONE', #67, #227, #249 ) ;
#136 = CARTESIAN_POINT ( 'NONE',  ( -4.999999999999894307, -3.673940397442059178E-15, 30.00000000000001776 ) ) ;
#137 = MECHANICAL_CONTEXT ( 'NONE', #115, 'mechanical' ) ;
#138 = PERSON_AND_ORGANIZATION ( #153, #157 ) ;
#139 = EDGE_LOOP ( 'NONE', ( #216 ) ) ;
#140 = CONICAL_SURFACE ( 'NONE', #89, 4.999999999999999112, 0.7853981633974415066 ) ;
#141 = DESIGN_CONTEXT ( 'detailed design', #107, 'design' ) ;
#142 = CALENDAR_DATE ( 2021, 18, 11 ) ;
#143 = DIRECTION ( 'NONE',  ( -3.491481338843133355E-15, 1.224646799147353207E-16, -1.000000000000000000 ) ) ;
#144 = ADVANCED_FACE ( 'NONE', ( #26 ), #214, .T. ) ;
#145 = PERSON_AND_ORGANIZATION_ROLE ( 'creator' ) ;
#146 = AXIS2_PLACEMENT_3D ( 'NONE', #31, #85, #223 ) ;
#147 = FACE_OUTER_BOUND ( 'NONE', #139, .T. ) ;
#148 = AXIS2_PLACEMENT_3D ( 'NONE', #230, #151, #130 ) ;
#149 = ORIENTED_EDGE ( 'NONE', *, *, #238, .F. ) ;
#150 = VERTEX_POINT ( 'NONE', #224 ) ;
#151 = DIRECTION ( 'NONE',  ( 3.491481338843133355E-15, -0.0000000000000000000, 1.000000000000000000 ) ) ;
#152 = AXIS2_PLACEMENT_3D ( 'NONE', #23, #154, #47 ) ;
#153 = PERSON ( 'UNSPECIFIED', 'UNSPECIFIED', 'UNSPECIFIED', ('UNSPECIFIED'), ('UNSPECIFIED'), ('UNSPECIFIED') ) ;
#154 = DIRECTION ( 'NONE',  ( 3.491481338843133355E-15, -0.0000000000000000000, 1.000000000000000000 ) ) ;
#155 = ORIENTED_EDGE ( 'NONE', *, *, #191, .T. ) ;
#156 = CARTESIAN_POINT ( 'NONE',  ( 7.681258945454893382E-14, 4.999999999999997335, 22.00000000000000000 ) ) ;
#157 = ORGANIZATION ( 'UNSPECIFIED', 'UNSPECIFIED', '' ) ;
#158 = ORIENTED_EDGE ( 'NONE', *, *, #127, .T. ) ;
#159 = DATE_AND_TIME ( #34, #75 ) ;
#160 = ORIENTED_EDGE ( 'NONE', *, *, #91, .F. ) ;
#161 = PERSON_AND_ORGANIZATION ( #153, #157 ) ;
#162 = ORIENTED_EDGE ( 'NONE', *, *, #180, .T. ) ;
#163 = CIRCLE ( 'NONE', #16, 4.999999999999999112 ) ;
#164 = PERSON_AND_ORGANIZATION_ROLE ( 'creator' ) ;
#165 = DIRECTION ( 'NONE',  ( -3.491481338843133355E-15, 1.224646799147353207E-16, -1.000000000000000000 ) ) ;
#166 = ADVANCED_FACE ( 'NONE', ( #38, #123 ), #140, .T. ) ;
#167 = APPROVAL ( #255, 'UNSPECIFIED' ) ;
#168 = AXIS2_PLACEMENT_3D ( 'NONE', #82, #172, #228 ) ;
#169 = CLOSED_SHELL ( 'NONE', ( #100, #166, #242, #84, #18, #222 ) ) ;
#170 = CARTESIAN_POINT ( 'NONE',  ( 4.000000000000000000, 0.0000000000000000000, -1.461644665886383608E-14 ) ) ;
#171 = DIRECTION ( 'NONE',  ( -1.000000000000000000, 0.0000000000000000000, 3.469446951953614978E-15 ) ) ;
#172 = DIRECTION ( 'NONE',  ( 3.491481338843133355E-15, -0.0000000000000000000, 1.000000000000000000 ) ) ;
#173 = CIRCLE ( 'NONE', #28, 4.650000000000000355 ) ;
#174 = EDGE_LOOP ( 'NONE', ( #131 ) ) ;
#175 = CARTESIAN_POINT ( 'NONE',  ( 1.047444401652940007E-13, 5.999999999999996447, 30.00000000000000000 ) ) ;
#176 = FACE_OUTER_BOUND ( 'NONE', #235, .T. ) ;
#177 = DATE_TIME_ROLE ( 'creation_date' ) ;
#178 = SECURITY_CLASSIFICATION_LEVEL ( 'unclassified' ) ;
#179 = PERSON_AND_ORGANIZATION ( #153, #157 ) ;
#180 = EDGE_CURVE ( 'NONE', #187, #187, #86, .T. ) ;
#181 = AXIS2_PLACEMENT_3D ( 'NONE', #125, #165, #19 ) ;
#182 = CALENDAR_DATE ( 2021, 18, 11 ) ;
#183 = DIRECTION ( 'NONE',  ( 3.491481338843133355E-15, -1.224646799147353207E-16, 1.000000000000000000 ) ) ;
#184 = APPROVAL ( #257, 'UNSPECIFIED' ) ;
#185 = AXIS2_PLACEMENT_3D ( 'NONE', #4, #248, #211 ) ;
#186 = LOCAL_TIME ( 11, 46, 11.00000000000000000, #55 ) ;
#187 = VERTEX_POINT ( 'NONE', #209 ) ;
#188 = LOCAL_TIME ( 11, 46, 11.00000000000000000, #119 ) ;
#189 = CARTESIAN_POINT ( 'NONE',  ( 0.0000000000000000000, 0.0000000000000000000, 0.0000000000000000000 ) ) ;
#190 = ORIENTED_EDGE ( 'NONE', *, *, #239, .T. ) ;
#191 = EDGE_CURVE ( 'NONE', #243, #243, #260, .T. ) ;
#192 = DIRECTION ( 'NONE',  ( 0.0000000000000000000, 0.0000000000000000000, 1.000000000000000000 ) ) ;
#193 = EDGE_LOOP ( 'NONE', ( #162 ) ) ;
#194 =( NAMED_UNIT ( * ) SI_UNIT ( $, .STERADIAN. ) SOLID_ANGLE_UNIT ( ) );
#195 = APPLICATION_PROTOCOL_DEFINITION ( 'international standard', 'config_control_design', 1994, #107 ) ;
#196 = PRODUCT_DEFINITION_SHAPE ( 'NONE', 'NONE',  #48 ) ;
#197 = EDGE_LOOP ( 'NONE', ( #32 ) ) ;
#198 = CALENDAR_DATE ( 2021, 18, 11 ) ;
#199 = UNCERTAINTY_MEASURE_WITH_UNIT (LENGTH_MEASURE( 1.000000000000000082E-05 ), #261, 'distance_accuracy_value', 'NONE');
#200 = CLOSED_SHELL ( 'NONE', ( #40, #33, #61, #144 ) ) ;
#201 = CC_DESIGN_PERSON_AND_ORGANIZATION_ASSIGNMENT ( #133, #6, ( #59 ) ) ;
#202 = DIRECTION ( 'NONE',  ( 4.275831445896958607E-31, 1.000000000000000000, 1.224646799147353207E-16 ) ) ;
#203 = CARTESIAN_POINT ( 'NONE',  ( 2.478951750578623799E-13, -8.694992273946204985E-15, 70.99999999999998579 ) ) ;
#204 = PLANE ( 'NONE',  #259 ) ;
#205 = CARTESIAN_POINT ( 'NONE',  ( 7.681258945454893382E-14, 3.749399456654640188E-32, 22.00000000000000000 ) ) ;
#206 = CARTESIAN_POINT ( 'NONE',  ( 3.491481338843129805E-15, 0.0000000000000000000, 0.9999999999999988898 ) ) ;
#207 = CC_DESIGN_DATE_AND_TIME_ASSIGNMENT ( #159, #14, ( #20 ) ) ;
#208 = DATE_AND_TIME ( #198, #188 ) ;
#209 = CARTESIAN_POINT ( 'NONE',  ( 2.513866563967056016E-13, 3.999999999999989786, 72.00000000000000000 ) ) ;
#210 = FACE_OUTER_BOUND ( 'NONE', #78, .T. ) ;
#211 = DIRECTION ( 'NONE',  ( 4.275831445896958607E-31, 1.000000000000000000, 1.224646799147353207E-16 ) ) ;
#212 = CIRCLE ( 'NONE', #168, 4.650000000000000355 ) ;
#213 = FACE_OUTER_BOUND ( 'NONE', #76, .T. ) ;
#214 = PLANE ( 'NONE',  #146 ) ;
#215 = APPROVAL_DATE_TIME ( #219, #167 ) ;
#216 = ORIENTED_EDGE ( 'NONE', *, *, #239, .F. ) ;
#217 = ORIENTED_EDGE ( 'NONE', *, *, #87, .T. ) ;
#218 = APPROVAL_PERSON_ORGANIZATION ( #179, #11, #237 ) ;
#219 = DATE_AND_TIME ( #142, #186 ) ;
#220 = FACE_OUTER_BOUND ( 'NONE', #39, .T. ) ;
#221 = APPROVAL_PERSON_ORGANIZATION ( #51, #184, #92 ) ;
#222 = ADVANCED_FACE ( 'NONE', ( #147 ), #204, .F. ) ;
#223 = DIRECTION ( 'NONE',  ( 4.275831445896958607E-31, 1.000000000000000000, 1.224646799147353207E-16 ) ) ;
#224 = CARTESIAN_POINT ( 'NONE',  ( 2.478951750578623799E-13, 4.999999999999990230, 70.99999999999998579 ) ) ;
#225 = DIRECTION ( 'NONE',  ( 1.000000000000000000, 0.0000000000000000000, 0.0000000000000000000 ) ) ;
#226 = CYLINDRICAL_SURFACE ( 'NONE', #135, 4.999999999999999112 ) ;
#227 = DIRECTION ( 'NONE',  ( -3.491481338843133355E-15, 1.224646799147353207E-16, -1.000000000000000000 ) ) ;
#228 = DIRECTION ( 'NONE',  ( 1.000000000000000000, 0.0000000000000000000, -3.730588120380230251E-15 ) ) ;
#229 = FACE_BOUND ( 'NONE', #12, .T. ) ;
#230 = CARTESIAN_POINT ( 'NONE',  ( -2.271282991659793715E-30, 0.0000000000000000000, -6.505213034913026604E-16 ) ) ;
#231 = CC_DESIGN_DATE_AND_TIME_ASSIGNMENT ( #120, #177, ( #48 ) ) ;
#232 = ORIENTED_EDGE ( 'NONE', *, *, #180, .F. ) ;
#233 = CC_DESIGN_PERSON_AND_ORGANIZATION_ASSIGNMENT ( #161, #252, ( #20 ) ) ;
#234 = CALENDAR_DATE ( 2021, 18, 11 ) ;
#235 = EDGE_LOOP ( 'NONE', ( #117 ) ) ;
#236 = AXIS2_PLACEMENT_3D ( 'NONE', #206, #106, #102 ) ;
#237 = APPROVAL_ROLE ( '' ) ;
#238 = EDGE_CURVE ( 'NONE', #150, #150, #163, .T. ) ;
#239 = EDGE_CURVE ( 'NONE', #41, #41, #212, .T. ) ;
#240 = AXIS2_PLACEMENT_3D ( 'NONE', #73, #244, #262 ) ;
#241 = AXIS2_PLACEMENT_3D ( 'NONE', #258, #143, #202 ) ;
#242 = ADVANCED_FACE ( 'NONE', ( #210 ), #24, .F. ) ;
#243 = VERTEX_POINT ( 'NONE', #66 ) ;
#244 = DIRECTION ( 'NONE',  ( -3.491481338843133355E-15, 1.224646799147353207E-16, -1.000000000000000000 ) ) ;
#245 = PRODUCT_DEFINITION_FORMATION_WITH_SPECIFIED_SOURCE ( 'ANY', '', #59, .NOT_KNOWN. ) ;
#246 = DIRECTION ( 'NONE',  ( 3.491481338843133355E-15, -0.0000000000000000000, 1.000000000000000000 ) ) ;
#247 = ADVANCED_BREP_SHAPE_REPRESENTATION ( '339052', ( #80, #81, #122 ), #42 ) ;
#248 = DIRECTION ( 'NONE',  ( -3.491481338843133355E-15, 1.224646799147353207E-16, -1.000000000000000000 ) ) ;
#249 = DIRECTION ( 'NONE',  ( 4.275831445896958607E-31, 1.000000000000000000, 1.224646799147353207E-16 ) ) ;
#250 = APPLICATION_PROTOCOL_DEFINITION ( 'international standard', 'config_control_design', 1994, #115 ) ;
#251 = AXIS2_PLACEMENT_3D ( 'NONE', #2, #114, #8 ) ;
#252 = PERSON_AND_ORGANIZATION_ROLE ( 'classification_officer' ) ;
#253 = APPROVAL_ROLE ( '' ) ;
#254 = EDGE_LOOP ( 'NONE', ( #158 ) ) ;
#255 = APPROVAL_STATUS ( 'not_yet_approved' ) ;
#256 = AXIS2_PLACEMENT_3D ( 'NONE', #7, #121, #99 ) ;
#257 = APPROVAL_STATUS ( 'not_yet_approved' ) ;
#258 = CARTESIAN_POINT ( 'NONE',  ( 0.0000000000000000000, 0.0000000000000000000, 0.0000000000000000000 ) ) ;
#259 = AXIS2_PLACEMENT_3D ( 'NONE', #205, #183, #104 ) ;
#260 = CIRCLE ( 'NONE', #236, 4.999999999999999112 ) ;
#261 =( LENGTH_UNIT ( ) NAMED_UNIT ( * ) SI_UNIT ( .MILLI., .METRE. ) );
#262 = DIRECTION ( 'NONE',  ( 0.0000000000000000000, 1.000000000000000000, 0.0000000000000000000 ) ) ;
#263 = ORIENTED_EDGE ( 'NONE', *, *, #87, .F. ) ;
ENDSEC;
END-ISO-10303-21;
