ISO-10303-21;
HEADER;
FILE_DESCRIPTION (( 'STEP AP203' ),
    '1' );
FILE_NAME ('339051.step',
    '2021-11-18T10:46:11',
    ( '' ),
    ( '' ),
    'SwSTEP 2.0',
    'SolidWorks 2019',
    '' );
FILE_SCHEMA (( 'CONFIG_CONTROL_DESIGN' ));
ENDSEC;

DATA;
#1 = LOCAL_TIME ( 11, 46, 11.00000000000000000, #52 ) ;
#2 = DIRECTION ( 'NONE',  ( 3.491481338843133355E-15, -0.0000000000000000000, 1.000000000000000000 ) ) ;
#3 = AXIS2_PLACEMENT_3D ( 'NONE', #209, #40, #43 ) ;
#4 =( NAMED_UNIT ( * ) PLANE_ANGLE_UNIT ( ) SI_UNIT ( $, .RADIAN. ) );
#5 = PRODUCT_DEFINITION_SHAPE ( 'NONE', 'NONE',  #29 ) ;
#6 = PERSON_AND_ORGANIZATION ( #254, #56 ) ;
#7 = CALENDAR_DATE ( 2021, 18, 11 ) ;
#8 = DATE_AND_TIME ( #133, #1 ) ;
#9 = AXIS2_PLACEMENT_3D ( 'NONE', #169, #129, #192 ) ;
#10 = PERSON_AND_ORGANIZATION ( #254, #56 ) ;
#11 = ADVANCED_FACE ( 'NONE', ( #32, #36 ), #198, .T. ) ;
#12 = ORIENTED_EDGE ( 'NONE', *, *, #121, .F. ) ;
#13 = ORIENTED_EDGE ( 'NONE', *, *, #37, .T. ) ;
#14 = CC_DESIGN_PERSON_AND_ORGANIZATION_ASSIGNMENT ( #131, #233, ( #69 ) ) ;
#15 = FACE_OUTER_BOUND ( 'NONE', #31, .T. ) ;
#16 = DIRECTION ( 'NONE',  ( 3.491481338843133355E-15, -0.0000000000000000000, 1.000000000000000000 ) ) ;
#17 = LOCAL_TIME ( 11, 46, 11.00000000000000000, #28 ) ;
#18 = VERTEX_POINT ( 'NONE', #261 ) ;
#19 = DIRECTION ( 'NONE',  ( -1.000000000000000000, 0.0000000000000000000, 3.469446951953614978E-15 ) ) ;
#20 = CARTESIAN_POINT ( 'NONE',  ( 4.650000000000105160, 0.0000000000000000000, 29.99999999999998224 ) ) ;
#21 = DIRECTION ( 'NONE',  ( -3.491481338843133355E-15, 1.224646799147353207E-16, -1.000000000000000000 ) ) ;
#22 = CARTESIAN_POINT ( 'NONE',  ( 0.0000000000000000000, 0.0000000000000000000, 0.0000000000000000000 ) ) ;
#23 = CIRCLE ( 'NONE', #91, 4.500000000000000888 ) ;
#24 = CIRCLE ( 'NONE', #176, 3.999999999999998224 ) ;
#25 = FACE_OUTER_BOUND ( 'NONE', #39, .T. ) ;
#26 = VERTEX_POINT ( 'NONE', #109 ) ;
#27 = ADVANCED_FACE ( 'NONE', ( #142, #164 ), #255, .T. ) ;
#28 = COORDINATED_UNIVERSAL_TIME_OFFSET ( 1, 0, .AHEAD. ) ;
#29 = PRODUCT_DEFINITION ( 'UNKNOWN', '', #76, #205 ) ;
#30 = LOCAL_TIME ( 11, 46, 11.00000000000000000, #153 ) ;
#31 = EDGE_LOOP ( 'NONE', ( #183 ) ) ;
#32 = FACE_BOUND ( 'NONE', #144, .T. ) ;
#33 = DIRECTION ( 'NONE',  ( 0.0000000000000000000, 1.000000000000000000, 0.0000000000000000000 ) ) ;
#34 = CIRCLE ( 'NONE', #218, 4.999999999999999112 ) ;
#35 = AXIS2_PLACEMENT_3D ( 'NONE', #123, #228, #126 ) ;
#36 = FACE_OUTER_BOUND ( 'NONE', #201, .T. ) ;
#37 = EDGE_CURVE ( 'NONE', #185, #185, #196, .T. ) ;
#38 = DIRECTION ( 'NONE',  ( 1.000000000000000000, 0.0000000000000000000, -3.491481338843133355E-15 ) ) ;
#39 = EDGE_LOOP ( 'NONE', ( #202 ) ) ;
#40 = DIRECTION ( 'NONE',  ( 3.491481338843133355E-15, -0.0000000000000000000, 1.000000000000000000 ) ) ;
#41 = CARTESIAN_POINT ( 'NONE',  ( 4.500000000000000888, 0.0000000000000000000, -1.625376711103685547E-14 ) ) ;
#42 = AXIS2_PLACEMENT_3D ( 'NONE', #160, #182, #217 ) ;
#43 = DIRECTION ( 'NONE',  ( 1.000000000000000000, 0.0000000000000000000, -3.730588120380230251E-15 ) ) ;
#44 = DIRECTION ( 'NONE',  ( -3.491481338843133355E-15, 1.224646799147353207E-16, -1.000000000000000000 ) ) ;
#45 = ADVANCED_FACE ( 'NONE', ( #157 ), #116, .F. ) ;
#46 = AXIS2_PLACEMENT_3D ( 'NONE', #63, #206, #38 ) ;
#47 = VERTEX_POINT ( 'NONE', #132 ) ;
#48 = APPROVAL_ROLE ( '' ) ;
#49 =( GEOMETRIC_REPRESENTATION_CONTEXT ( 3 ) GLOBAL_UNCERTAINTY_ASSIGNED_CONTEXT ( ( #222 ) ) GLOBAL_UNIT_ASSIGNED_CONTEXT ( ( #128, #4, #124 ) ) REPRESENTATION_CONTEXT ( 'NONE', 'WORKASPACE' ) );
#50 = ADVANCED_FACE ( 'NONE', ( #15, #125 ), #107, .T. ) ;
#51 = APPROVAL_STATUS ( 'not_yet_approved' ) ;
#52 = COORDINATED_UNIVERSAL_TIME_OFFSET ( 1, 0, .AHEAD. ) ;
#53 = CC_DESIGN_DATE_AND_TIME_ASSIGNMENT ( #90, #152, ( #29 ) ) ;
#54 = APPROVAL_DATE_TIME ( #249, #147 ) ;
#55 = PERSON_AND_ORGANIZATION_ROLE ( 'design_owner' ) ;
#56 = ORGANIZATION ( 'UNSPECIFIED', 'UNSPECIFIED', '' ) ;
#57 = ORIENTED_EDGE ( 'NONE', *, *, #37, .F. ) ;
#58 = APPROVAL_DATE_TIME ( #250, #143 ) ;
#59 = DIRECTION ( 'NONE',  ( -1.000000000000000000, 0.0000000000000000000, 3.491481338843133355E-15 ) ) ;
#60 = ORIENTED_EDGE ( 'NONE', *, *, #84, .T. ) ;
#61 = DIRECTION ( 'NONE',  ( -3.491481338843133355E-15, 1.224646799147353207E-16, -1.000000000000000000 ) ) ;
#62 = APPROVAL ( #245, 'UNSPECIFIED' ) ;
#63 = CARTESIAN_POINT ( 'NONE',  ( 1.745740669421562142E-15, 0.0000000000000000000, 0.4999999999999987232 ) ) ;
#64 = FACE_OUTER_BOUND ( 'NONE', #137, .T. ) ;
#65 = CC_DESIGN_PERSON_AND_ORGANIZATION_ASSIGNMENT ( #174, #55, ( #179 ) ) ;
#66 = DIRECTION ( 'NONE',  ( 4.275831445896958607E-31, 1.000000000000000000, 1.224646799147353207E-16 ) ) ;
#67 = FACE_OUTER_BOUND ( 'NONE', #163, .T. ) ;
#68 = FACE_OUTER_BOUND ( 'NONE', #203, .T. ) ;
#69 = SECURITY_CLASSIFICATION ( '', '', #244 ) ;
#70 = DIRECTION ( 'NONE',  ( -3.491481338843133355E-15, 1.224646799147353207E-16, -1.000000000000000000 ) ) ;
#71 = MANIFOLD_SOLID_BREP ( 'Corps-Déplacer/Copier1[2]', #170 ) ;
#72 = CARTESIAN_POINT ( 'NONE',  ( 2.513866563967056016E-13, -8.817456953860941711E-15, 72.00000000000000000 ) ) ;
#73 = APPLICATION_CONTEXT ( 'configuration controlled 3d designs of mechanical parts and assemblies' ) ;
#74 = EDGE_CURVE ( 'NONE', #259, #259, #181, .T. ) ;
#75 = PERSON_AND_ORGANIZATION ( #254, #56 ) ;
#76 = PRODUCT_DEFINITION_FORMATION_WITH_SPECIFIED_SOURCE ( 'ANY', '', #179, .NOT_KNOWN. ) ;
#77 = AXIS2_PLACEMENT_3D ( 'NONE', #96, #118, #94 ) ;
#78 = DIRECTION ( 'NONE',  ( -3.491481338843133355E-15, 0.0000000000000000000, -1.000000000000000000 ) ) ;
#79 = ORIENTED_EDGE ( 'NONE', *, *, #236, .T. ) ;
#80 = EDGE_LOOP ( 'NONE', ( #162 ) ) ;
#81 = TOROIDAL_SURFACE ( 'NONE', #46, 4.500000000000000888, 0.4999999999999992784 ) ;
#82 = EDGE_LOOP ( 'NONE', ( #180 ) ) ;
#83 = CARTESIAN_POINT ( 'NONE',  ( 7.681258945454893382E-14, -2.694222958124176809E-15, 22.00000000000000000 ) ) ;
#84 = EDGE_CURVE ( 'NONE', #26, #26, #199, .T. ) ;
#85 = APPLICATION_CONTEXT ( 'configuration controlled 3d designs of mechanical parts and assemblies' ) ;
#86 = DIRECTION ( 'NONE',  ( 4.275831445896958607E-31, 1.000000000000000000, 1.224646799147353207E-16 ) ) ;
#87 = APPROVAL_PERSON_ORGANIZATION ( #10, #143, #159 ) ;
#88 = PERSON_AND_ORGANIZATION ( #254, #56 ) ;
#89 = CC_DESIGN_APPROVAL ( #62, ( #29 ) ) ;
#90 = DATE_AND_TIME ( #173, #30 ) ;
#91 = AXIS2_PLACEMENT_3D ( 'NONE', #226, #221, #262 ) ;
#92 = DIRECTION ( 'NONE',  ( 0.0000000000000000000, 0.0000000000000000000, 1.000000000000000000 ) ) ;
#93 = EDGE_CURVE ( 'NONE', #18, #18, #34, .T. ) ;
#94 = DIRECTION ( 'NONE',  ( 0.0000000000000000000, 1.000000000000000000, 0.0000000000000000000 ) ) ;
#95 = LOCAL_TIME ( 11, 46, 11.00000000000000000, #114 ) ;
#96 = CARTESIAN_POINT ( 'NONE',  ( 2.478951750578623799E-13, -8.694992273946204985E-15, 70.99999999999998579 ) ) ;
#97 = ORIENTED_EDGE ( 'NONE', *, *, #155, .F. ) ;
#98 = CC_DESIGN_PERSON_AND_ORGANIZATION_ASSIGNMENT ( #88, #213, ( #76 ) ) ;
#99 = ORIENTED_EDGE ( 'NONE', *, *, #236, .F. ) ;
#100 = DIRECTION ( 'NONE',  ( 1.000000000000000000, 0.0000000000000000000, -3.730588120380230251E-15 ) ) ;
#101 = ORIENTED_EDGE ( 'NONE', *, *, #155, .T. ) ;
#102 = VERTEX_POINT ( 'NONE', #41 ) ;
#103 = CYLINDRICAL_SURFACE ( 'NONE', #211, 4.999999999999999112 ) ;
#104 = VERTEX_POINT ( 'NONE', #193 ) ;
#105 = DIRECTION ( 'NONE',  ( 0.0000000000000000000, 1.000000000000000000, 0.0000000000000000000 ) ) ;
#106 = CARTESIAN_POINT ( 'NONE',  ( -1.068957861474239564E-30, 3.749399456654644020E-32, -3.061616997868383141E-16 ) ) ;
#107 = CYLINDRICAL_SURFACE ( 'NONE', #156, 5.000000000000000000 ) ;
#108 = CC_DESIGN_APPROVAL ( #143, ( #69 ) ) ;
#109 = CARTESIAN_POINT ( 'NONE',  ( -4.999999999999894307, -3.673940397442059178E-15, 30.00000000000001776 ) ) ;
#110 = FACE_OUTER_BOUND ( 'NONE', #82, .T. ) ;
#111 = CIRCLE ( 'NONE', #210, 4.650000000000000355 ) ;
#112 = PERSON_AND_ORGANIZATION ( #254, #56 ) ;
#113 = MECHANICAL_CONTEXT ( 'NONE', #73, 'mechanical' ) ;
#114 = COORDINATED_UNIVERSAL_TIME_OFFSET ( 1, 0, .AHEAD. ) ;
#115 = EDGE_LOOP ( 'NONE', ( #97 ) ) ;
#116 = PLANE ( 'NONE',  #42 ) ;
#117 = CIRCLE ( 'NONE', #3, 4.650000000000000355 ) ;
#118 = DIRECTION ( 'NONE',  ( -3.491481338843133355E-15, 1.224646799147353207E-16, -1.000000000000000000 ) ) ;
#119 = CARTESIAN_POINT ( 'NONE',  ( 7.681258945454893382E-14, 0.0000000000000000000, 22.00000000000000000 ) ) ;
#120 = CARTESIAN_POINT ( 'NONE',  ( 7.681258945454893382E-14, 4.999999999999997335, 22.00000000000000000 ) ) ;
#121 = EDGE_CURVE ( 'NONE', #102, #102, #23, .T. ) ;
#122 = DIRECTION ( 'NONE',  ( -3.491481338843133355E-15, 1.224646799147353207E-16, -1.000000000000000000 ) ) ;
#123 = CARTESIAN_POINT ( 'NONE',  ( -1.282749433769087757E-30, 0.0000000000000000000, -3.673940397442059868E-16 ) ) ;
#124 =( NAMED_UNIT ( * ) SI_UNIT ( $, .STERADIAN. ) SOLID_ANGLE_UNIT ( ) );
#125 = FACE_OUTER_BOUND ( 'NONE', #216, .T. ) ;
#126 = DIRECTION ( 'NONE',  ( 1.000000000000000000, 0.0000000000000000000, -3.491481338843133750E-15 ) ) ;
#127 = ADVANCED_BREP_SHAPE_REPRESENTATION ( '339051', ( #161, #71, #227 ), #49 ) ;
#128 =( LENGTH_UNIT ( ) NAMED_UNIT ( * ) SI_UNIT ( .MILLI., .METRE. ) );
#129 = DIRECTION ( 'NONE',  ( 3.491481338843133355E-15, -1.224646799147353207E-16, 1.000000000000000000 ) ) ;
#130 = PLANE ( 'NONE',  #247 ) ;
#131 = PERSON_AND_ORGANIZATION ( #254, #56 ) ;
#132 = CARTESIAN_POINT ( 'NONE',  ( 4.650000000000077627, 0.0000000000000000000, 21.99999999999998224 ) ) ;
#133 = CALENDAR_DATE ( 2021, 18, 11 ) ;
#134 = ADVANCED_FACE ( 'NONE', ( #64, #224 ), #103, .T. ) ;
#135 = PERSON_AND_ORGANIZATION_ROLE ( 'creator' ) ;
#136 = DATE_TIME_ROLE ( 'classification_date' ) ;
#137 = EDGE_LOOP ( 'NONE', ( #13 ) ) ;
#138 = EDGE_LOOP ( 'NONE', ( #186 ) ) ;
#139 = ORIENTED_EDGE ( 'NONE', *, *, #121, .T. ) ;
#140 = AXIS2_PLACEMENT_3D ( 'NONE', #106, #191, #229 ) ;
#141 = CALENDAR_DATE ( 2021, 18, 11 ) ;
#142 = FACE_OUTER_BOUND ( 'NONE', #80, .T. ) ;
#143 = APPROVAL ( #177, 'UNSPECIFIED' ) ;
#144 = EDGE_LOOP ( 'NONE', ( #79 ) ) ;
#145 = DIRECTION ( 'NONE',  ( 3.491481338843133355E-15, -0.0000000000000000000, 1.000000000000000000 ) ) ;
#146 = CARTESIAN_POINT ( 'NONE',  ( 1.745740669421562142E-15, 0.0000000000000000000, 0.4999999999999987232 ) ) ;
#147 = APPROVAL ( #51, 'UNSPECIFIED' ) ;
#148 = DIRECTION ( 'NONE',  ( -3.491481338843133355E-15, 1.224646799147353207E-16, -1.000000000000000000 ) ) ;
#149 = APPROVAL_PERSON_ORGANIZATION ( #6, #62, #231 ) ;
#150 = PLANE ( 'NONE',  #140 ) ;
#151 = PERSON_AND_ORGANIZATION_ROLE ( 'design_supplier' ) ;
#152 = DATE_TIME_ROLE ( 'creation_date' ) ;
#153 = COORDINATED_UNIVERSAL_TIME_OFFSET ( 1, 0, .AHEAD. ) ;
#154 = SHAPE_DEFINITION_REPRESENTATION ( #5, #127 ) ;
#155 = EDGE_CURVE ( 'NONE', #207, #207, #117, .T. ) ;
#156 = AXIS2_PLACEMENT_3D ( 'NONE', #22, #44, #66 ) ;
#157 = FACE_OUTER_BOUND ( 'NONE', #138, .T. ) ;
#158 = CC_DESIGN_DATE_AND_TIME_ASSIGNMENT ( #251, #136, ( #69 ) ) ;
#159 = APPROVAL_ROLE ( '' ) ;
#160 = CARTESIAN_POINT ( 'NONE',  ( 7.681258945454893382E-14, 3.749399456654640188E-32, 22.00000000000000000 ) ) ;
#161 = MANIFOLD_SOLID_BREP ( 'Corps-Déplacer/Copier1[1]', #190 ) ;
#162 = ORIENTED_EDGE ( 'NONE', *, *, #84, .F. ) ;
#163 = EDGE_LOOP ( 'NONE', ( #139 ) ) ;
#164 = FACE_BOUND ( 'NONE', #235, .T. ) ;
#165 = FACE_OUTER_BOUND ( 'NONE', #115, .T. ) ;
#166 = PLANE ( 'NONE',  #9 ) ;
#167 = FACE_OUTER_BOUND ( 'NONE', #184, .T. ) ;
#168 = FACE_OUTER_BOUND ( 'NONE', #238, .T. ) ;
#169 = CARTESIAN_POINT ( 'NONE',  ( 7.681258945454893382E-14, 3.749399456654640188E-32, 22.00000000000000000 ) ) ;
#170 = CLOSED_SHELL ( 'NONE', ( #50, #194, #232, #215 ) ) ;
#171 = CC_DESIGN_PERSON_AND_ORGANIZATION_ASSIGNMENT ( #197, #151, ( #76 ) ) ;
#172 = CARTESIAN_POINT ( 'NONE',  ( 0.0000000000000000000, 0.0000000000000000000, 0.0000000000000000000 ) ) ;
#173 = CALENDAR_DATE ( 2021, 18, 11 ) ;
#174 = PERSON_AND_ORGANIZATION ( #254, #56 ) ;
#175 = ADVANCED_FACE ( 'NONE', ( #167, #165 ), #240, .T. ) ;
#176 = AXIS2_PLACEMENT_3D ( 'NONE', #72, #70, #220 ) ;
#177 = APPROVAL_STATUS ( 'not_yet_approved' ) ;
#178 = DIRECTION ( 'NONE',  ( 1.000000000000000000, 0.0000000000000000000, 0.0000000000000000000 ) ) ;
#179 = PRODUCT ( '339051', '339051', '', ( #113 ) ) ;
#180 = ORIENTED_EDGE ( 'NONE', *, *, #93, .F. ) ;
#181 = CIRCLE ( 'NONE', #225, 5.000000000000000000 ) ;
#182 = DIRECTION ( 'NONE',  ( 3.491481338843133355E-15, -1.224646799147353207E-16, 1.000000000000000000 ) ) ;
#183 = ORIENTED_EDGE ( 'NONE', *, *, #93, .T. ) ;
#184 = EDGE_LOOP ( 'NONE', ( #260 ) ) ;
#185 = VERTEX_POINT ( 'NONE', #212 ) ;
#186 = ORIENTED_EDGE ( 'NONE', *, *, #239, .F. ) ;
#187 = DIRECTION ( 'NONE',  ( 1.000000000000000000, 0.0000000000000000000, -3.491130995403325066E-15 ) ) ;
#188 = DIRECTION ( 'NONE',  ( 4.275831445896958607E-31, 1.000000000000000000, 1.224646799147353207E-16 ) ) ;
#189 = CARTESIAN_POINT ( 'NONE',  ( 1.047444401652940007E-13, -3.673940397442059178E-15, 30.00000000000000000 ) ) ;
#190 = CLOSED_SHELL ( 'NONE', ( #134, #11, #223, #175, #27, #45 ) ) ;
#191 = DIRECTION ( 'NONE',  ( -3.491481338843133355E-15, 1.224646799147353207E-16, -1.000000000000000000 ) ) ;
#192 = DIRECTION ( 'NONE',  ( -4.275831445896958607E-31, -1.000000000000000000, -1.224646799147353207E-16 ) ) ;
#193 = CARTESIAN_POINT ( 'NONE',  ( 2.513866563967056016E-13, 3.999999999999989786, 72.00000000000000000 ) ) ;
#194 = ADVANCED_FACE ( 'NONE', ( #25 ), #166, .T. ) ;
#195 = APPLICATION_PROTOCOL_DEFINITION ( 'international standard', 'config_control_design', 1994, #73 ) ;
#196 = CIRCLE ( 'NONE', #77, 4.999999999999999112 ) ;
#197 = PERSON_AND_ORGANIZATION ( #254, #56 ) ;
#198 = CONICAL_SURFACE ( 'NONE', #258, 4.999999999999999112, 0.7853981633974415066 ) ;
#199 = CIRCLE ( 'NONE', #246, 4.999999999999999112 ) ;
#200 = CARTESIAN_POINT ( 'NONE',  ( 1.047444401652940007E-13, 5.999999999999996447, 30.00000000000000000 ) ) ;
#201 = EDGE_LOOP ( 'NONE', ( #57 ) ) ;
#202 = ORIENTED_EDGE ( 'NONE', *, *, #74, .F. ) ;
#203 = EDGE_LOOP ( 'NONE', ( #12 ) ) ;
#204 = CC_DESIGN_PERSON_AND_ORGANIZATION_ASSIGNMENT ( #75, #135, ( #29 ) ) ;
#205 = DESIGN_CONTEXT ( 'detailed design', #85, 'design' ) ;
#206 = DIRECTION ( 'NONE',  ( 3.491481338843133355E-15, -0.0000000000000000000, 1.000000000000000000 ) ) ;
#207 = VERTEX_POINT ( 'NONE', #20 ) ;
#208 = CARTESIAN_POINT ( 'NONE',  ( 0.0000000000000000000, 0.0000000000000000000, 0.0000000000000000000 ) ) ;
#209 = CARTESIAN_POINT ( 'NONE',  ( 1.047444401652940007E-13, 0.0000000000000000000, 30.00000000000000000 ) ) ;
#210 = AXIS2_PLACEMENT_3D ( 'NONE', #119, #16, #100 ) ;
#211 = AXIS2_PLACEMENT_3D ( 'NONE', #208, #21, #188 ) ;
#212 = CARTESIAN_POINT ( 'NONE',  ( 2.478951750578623799E-13, 4.999999999999990230, 70.99999999999998579 ) ) ;
#213 = PERSON_AND_ORGANIZATION_ROLE ( 'creator' ) ;
#214 = APPROVAL_DATE_TIME ( #8, #62 ) ;
#215 = ADVANCED_FACE ( 'NONE', ( #68 ), #150, .T. ) ;
#216 = EDGE_LOOP ( 'NONE', ( #256 ) ) ;
#217 = DIRECTION ( 'NONE',  ( -4.275831445896958607E-31, -1.000000000000000000, -1.224646799147353207E-16 ) ) ;
#218 = AXIS2_PLACEMENT_3D ( 'NONE', #146, #145, #187 ) ;
#219 = EDGE_LOOP ( 'NONE', ( #60 ) ) ;
#220 = DIRECTION ( 'NONE',  ( 0.0000000000000000000, 1.000000000000000000, 0.0000000000000000000 ) ) ;
#221 = DIRECTION ( 'NONE',  ( 3.491481338843133355E-15, -0.0000000000000000000, 1.000000000000000000 ) ) ;
#222 = UNCERTAINTY_MEASURE_WITH_UNIT (LENGTH_MEASURE( 1.000000000000000082E-05 ), #128, 'distance_accuracy_value', 'NONE');
#223 = ADVANCED_FACE ( 'NONE', ( #168 ), #130, .F. ) ;
#224 = FACE_OUTER_BOUND ( 'NONE', #219, .T. ) ;
#225 = AXIS2_PLACEMENT_3D ( 'NONE', #83, #122, #105 ) ;
#226 = CARTESIAN_POINT ( 'NONE',  ( -1.892735826383161488E-30, 0.0000000000000000000, -5.421010862427522170E-16 ) ) ;
#227 = AXIS2_PLACEMENT_3D ( 'NONE', #172, #92, #178 ) ;
#228 = DIRECTION ( 'NONE',  ( 3.491481338843133355E-15, -0.0000000000000000000, 1.000000000000000000 ) ) ;
#229 = DIRECTION ( 'NONE',  ( 4.275831445896958607E-31, 1.000000000000000000, 1.224646799147353207E-16 ) ) ;
#230 = APPLICATION_PROTOCOL_DEFINITION ( 'international standard', 'config_control_design', 1994, #85 ) ;
#231 = APPROVAL_ROLE ( '' ) ;
#232 = ADVANCED_FACE ( 'NONE', ( #67, #110 ), #81, .T. ) ;
#233 = PERSON_AND_ORGANIZATION_ROLE ( 'classification_officer' ) ;
#234 = CALENDAR_DATE ( 2021, 18, 11 ) ;
#235 = EDGE_LOOP ( 'NONE', ( #101 ) ) ;
#236 = EDGE_CURVE ( 'NONE', #104, #104, #24, .T. ) ;
#237 = COORDINATED_UNIVERSAL_TIME_OFFSET ( 1, 0, .AHEAD. ) ;
#238 = EDGE_LOOP ( 'NONE', ( #99 ) ) ;
#239 = EDGE_CURVE ( 'NONE', #47, #47, #111, .T. ) ;
#240 = CYLINDRICAL_SURFACE ( 'NONE', #35, 4.650000000000000355 ) ;
#241 = LOCAL_TIME ( 11, 46, 11.00000000000000000, #237 ) ;
#242 = PRODUCT_RELATED_PRODUCT_CATEGORY ( 'detail', '', ( #179 ) ) ;
#243 = CC_DESIGN_SECURITY_CLASSIFICATION ( #69, ( #76 ) ) ;
#244 = SECURITY_CLASSIFICATION_LEVEL ( 'unclassified' ) ;
#245 = APPROVAL_STATUS ( 'not_yet_approved' ) ;
#246 = AXIS2_PLACEMENT_3D ( 'NONE', #189, #2, #19 ) ;
#247 = AXIS2_PLACEMENT_3D ( 'NONE', #263, #148, #86 ) ;
#248 = AXIS2_PLACEMENT_3D ( 'NONE', #200, #78, #59 ) ;
#249 = DATE_AND_TIME ( #7, #17 ) ;
#250 = DATE_AND_TIME ( #234, #95 ) ;
#251 = DATE_AND_TIME ( #141, #241 ) ;
#252 = CARTESIAN_POINT ( 'NONE',  ( 2.478951750578623799E-13, -8.694992273946204985E-15, 70.99999999999998579 ) ) ;
#253 = CC_DESIGN_APPROVAL ( #147, ( #76 ) ) ;
#254 = PERSON ( 'UNSPECIFIED', 'UNSPECIFIED', 'UNSPECIFIED', ('UNSPECIFIED'), ('UNSPECIFIED'), ('UNSPECIFIED') ) ;
#255 = PLANE ( 'NONE',  #248 ) ;
#256 = ORIENTED_EDGE ( 'NONE', *, *, #74, .T. ) ;
#257 = APPROVAL_PERSON_ORGANIZATION ( #112, #147, #48 ) ;
#258 = AXIS2_PLACEMENT_3D ( 'NONE', #252, #61, #33 ) ;
#259 = VERTEX_POINT ( 'NONE', #120 ) ;
#260 = ORIENTED_EDGE ( 'NONE', *, *, #239, .T. ) ;
#261 = CARTESIAN_POINT ( 'NONE',  ( 5.000000000000000888, 0.0000000000000000000, 0.4999999999999812372 ) ) ;
#262 = DIRECTION ( 'NONE',  ( 1.000000000000000000, 0.0000000000000000000, -3.491481338843133355E-15 ) ) ;
#263 = CARTESIAN_POINT ( 'NONE',  ( 2.513866563967056016E-13, 2.999519565323700984E-32, 72.00000000000000000 ) ) ;
ENDSEC;
END-ISO-10303-21;
