ISO-10303-21;
HEADER;
FILE_DESCRIPTION (( 'STEP AP203' ),
    '1' );
FILE_NAME ('339050.step',
    '2021-11-18T10:46:10',
    ( '' ),
    ( '' ),
    'SwSTEP 2.0',
    'SolidWorks 2019',
    '' );
FILE_SCHEMA (( 'CONFIG_CONTROL_DESIGN' ));
ENDSEC;

DATA;
#1 = DIRECTION ( 'NONE',  ( -1.000000000000000000, 0.0000000000000000000, 3.469446951953615767E-15 ) ) ;
#2 = CC_DESIGN_APPROVAL ( #215, ( #249 ) ) ;
#3 = PERSON_AND_ORGANIZATION_ROLE ( 'creator' ) ;
#4 = ADVANCED_FACE ( 'NONE', ( #34 ), #18, .F. ) ;
#5 = PERSON_AND_ORGANIZATION ( #147, #250 ) ;
#6 = CC_DESIGN_DATE_AND_TIME_ASSIGNMENT ( #32, #160, ( #249 ) ) ;
#7 = FACE_OUTER_BOUND ( 'NONE', #194, .T. ) ;
#8 = AXIS2_PLACEMENT_3D ( 'NONE', #145, #40, #190 ) ;
#9 = AXIS2_PLACEMENT_3D ( 'NONE', #182, #13, #254 ) ;
#10 = VERTEX_POINT ( 'NONE', #154 ) ;
#11 = DIRECTION ( 'NONE',  ( -3.491481338843133355E-15, 1.224646799147353207E-16, -1.000000000000000000 ) ) ;
#12 = ORIENTED_EDGE ( 'NONE', *, *, #17, .F. ) ;
#13 = DIRECTION ( 'NONE',  ( 3.491481338843133355E-15, -0.0000000000000000000, 1.000000000000000000 ) ) ;
#14 = AXIS2_PLACEMENT_3D ( 'NONE', #51, #193, #88 ) ;
#15 = SECURITY_CLASSIFICATION_LEVEL ( 'unclassified' ) ;
#16 = DIRECTION ( 'NONE',  ( 4.275831445896958607E-31, 1.000000000000000000, 1.224646799147353207E-16 ) ) ;
#17 = EDGE_CURVE ( 'NONE', #170, #170, #186, .T. ) ;
#18 = PLANE ( 'NONE',  #192 ) ;
#19 = MECHANICAL_CONTEXT ( 'NONE', #90, 'mechanical' ) ;
#20 = AXIS2_PLACEMENT_3D ( 'NONE', #247, #48, #132 ) ;
#21 = CALENDAR_DATE ( 2021, 18, 11 ) ;
#22 = CARTESIAN_POINT ( 'NONE',  ( -8.551662891793915461E-31, 2.999519565323715216E-32, -2.449293598294706414E-16 ) ) ;
#23 = FACE_BOUND ( 'NONE', #218, .T. ) ;
#24 = APPROVAL_STATUS ( 'not_yet_approved' ) ;
#25 = DIRECTION ( 'NONE',  ( 3.491481338843133355E-15, -0.0000000000000000000, 1.000000000000000000 ) ) ;
#26 = ADVANCED_FACE ( 'NONE', ( #79 ), #38, .T. ) ;
#27 = APPLICATION_PROTOCOL_DEFINITION ( 'international standard', 'config_control_design', 1994, #77 ) ;
#28 = VERTEX_POINT ( 'NONE', #212 ) ;
#29 = TOROIDAL_SURFACE ( 'NONE', #20, 1.000000000000000000, 3.000000000000000000 ) ;
#30 = ADVANCED_FACE ( 'NONE', ( #255, #75 ), #99, .T. ) ;
#31 = ORIENTED_EDGE ( 'NONE', *, *, #185, .T. ) ;
#32 = DATE_AND_TIME ( #21, #230 ) ;
#33 = PRODUCT_RELATED_PRODUCT_CATEGORY ( 'detail', '', ( #92 ) ) ;
#34 = FACE_OUTER_BOUND ( 'NONE', #205, .T. ) ;
#35 = DIRECTION ( 'NONE',  ( -3.491481338843133355E-15, 1.224646799147353207E-16, -1.000000000000000000 ) ) ;
#36 = CC_DESIGN_SECURITY_CLASSIFICATION ( #249, ( #167 ) ) ;
#37 = DIRECTION ( 'NONE',  ( 0.0000000000000000000, 1.000000000000000000, 0.0000000000000000000 ) ) ;
#38 = PLANE ( 'NONE',  #144 ) ;
#39 = DIRECTION ( 'NONE',  ( 3.491481338843133355E-15, -0.0000000000000000000, 1.000000000000000000 ) ) ;
#40 = DIRECTION ( 'NONE',  ( -3.491481338843133355E-15, 1.224646799147353207E-16, -1.000000000000000000 ) ) ;
#41 = CARTESIAN_POINT ( 'NONE',  ( 9.077851480992146724E-14, 0.0000000000000000000, 26.00000000000000000 ) ) ;
#42 = APPROVAL ( #24, 'UNSPECIFIED' ) ;
#43 = PLANE ( 'NONE',  #128 ) ;
#44 = AXIS2_PLACEMENT_3D ( 'NONE', #231, #131, #213 ) ;
#45 = PERSON_AND_ORGANIZATION ( #147, #250 ) ;
#46 = VERTEX_POINT ( 'NONE', #246 ) ;
#47 = CARTESIAN_POINT ( 'NONE',  ( 2.171701392760429073E-13, 3.999999999999989786, 62.20000000000000284 ) ) ;
#48 = DIRECTION ( 'NONE',  ( 3.491481338843133355E-15, -0.0000000000000000000, 1.000000000000000000 ) ) ;
#49 = EDGE_CURVE ( 'NONE', #109, #109, #111, .T. ) ;
#50 = CARTESIAN_POINT ( 'NONE',  ( 3.700000000000090772, 0.0000000000000000000, 25.99999999999998579 ) ) ;
#51 = CARTESIAN_POINT ( 'NONE',  ( -4.542565983319587431E-30, 0.0000000000000000000, -1.301042606982605321E-15 ) ) ;
#52 = ORIENTED_EDGE ( 'NONE', *, *, #244, .T. ) ;
#53 = ADVANCED_FACE ( 'NONE', ( #180, #235 ), #56, .T. ) ;
#54 = APPROVAL_ROLE ( '' ) ;
#55 = EDGE_LOOP ( 'NONE', ( #136 ) ) ;
#56 = CYLINDRICAL_SURFACE ( 'NONE', #64, 4.000000000000000000 ) ;
#57 = CLOSED_SHELL ( 'NONE', ( #53, #26, #239, #155 ) ) ;
#58 = EDGE_LOOP ( 'NONE', ( #252 ) ) ;
#59 = DIRECTION ( 'NONE',  ( -3.491481338843133355E-15, 1.224646799147353207E-16, -1.000000000000000000 ) ) ;
#60 = CC_DESIGN_PERSON_AND_ORGANIZATION_ASSIGNMENT ( #138, #233, ( #249 ) ) ;
#61 = DIRECTION ( 'NONE',  ( -3.491481338843133355E-15, 1.224646799147353207E-16, -1.000000000000000000 ) ) ;
#62 = EDGE_CURVE ( 'NONE', #153, #153, #175, .T. ) ;
#63 = CARTESIAN_POINT ( 'NONE',  ( 2.171701392760429073E-13, -7.617303090696536944E-15, 62.20000000000000284 ) ) ;
#64 = AXIS2_PLACEMENT_3D ( 'NONE', #137, #35, #201 ) ;
#65 = COORDINATED_UNIVERSAL_TIME_OFFSET ( 1, 0, .AHEAD. ) ;
#66 = MANIFOLD_SOLID_BREP ( 'Corps-Déplacer/Copier1[2]', #57 ) ;
#67 =( NAMED_UNIT ( * ) PLANE_ANGLE_UNIT ( ) SI_UNIT ( $, .RADIAN. ) );
#68 =( NAMED_UNIT ( * ) SI_UNIT ( $, .STERADIAN. ) SOLID_ANGLE_UNIT ( ) );
#69 = EDGE_CURVE ( 'NONE', #85, #85, #89, .T. ) ;
#70 = DIRECTION ( 'NONE',  ( -4.275831445896958607E-31, -1.000000000000000000, -1.224646799147353207E-16 ) ) ;
#71 = ADVANCED_FACE ( 'NONE', ( #183, #23 ), #187, .T. ) ;
#72 = PERSON_AND_ORGANIZATION_ROLE ( 'creator' ) ;
#73 = CC_DESIGN_APPROVAL ( #42, ( #167 ) ) ;
#74 = ORIENTED_EDGE ( 'NONE', *, *, #62, .T. ) ;
#75 = FACE_OUTER_BOUND ( 'NONE', #97, .T. ) ;
#76 = CALENDAR_DATE ( 2021, 18, 11 ) ;
#77 = APPLICATION_CONTEXT ( 'configuration controlled 3d designs of mechanical parts and assemblies' ) ;
#78 = CIRCLE ( 'NONE', #14, 1.000000000000000444 ) ;
#79 = FACE_OUTER_BOUND ( 'NONE', #80, .T. ) ;
#80 = EDGE_LOOP ( 'NONE', ( #100 ) ) ;
#81 = FACE_OUTER_BOUND ( 'NONE', #114, .T. ) ;
#82 = ADVANCED_FACE ( 'NONE', ( #209, #166 ), #236, .T. ) ;
#83 = APPROVAL_PERSON_ORGANIZATION ( #202, #215, #54 ) ;
#84 = APPROVAL_ROLE ( '' ) ;
#85 = VERTEX_POINT ( 'NONE', #87 ) ;
#86 = APPROVAL_PERSON_ORGANIZATION ( #191, #42, #84 ) ;
#87 = CARTESIAN_POINT ( 'NONE',  ( -3.999999999999907185, -3.184081677783118191E-15, 26.00000000000001421 ) ) ;
#88 = DIRECTION ( 'NONE',  ( 1.000000000000000000, 0.0000000000000000000, -3.491481338843133355E-15 ) ) ;
#89 = CIRCLE ( 'NONE', #133, 3.999999999999998224 ) ;
#90 = APPLICATION_CONTEXT ( 'configuration controlled 3d designs of mechanical parts and assemblies' ) ;
#91 = CC_DESIGN_APPROVAL ( #107, ( #149 ) ) ;
#92 = PRODUCT ( '339050', '339050', '', ( #19 ) ) ;
#93 = DIRECTION ( 'NONE',  ( 0.0000000000000000000, 1.000000000000000000, 0.0000000000000000000 ) ) ;
#94 = CARTESIAN_POINT ( 'NONE',  ( 2.199633243471174140E-13, -7.715274834628325378E-15, 63.00000000000000000 ) ) ;
#95 = CIRCLE ( 'NONE', #124, 4.000000000000000000 ) ;
#96 = EDGE_LOOP ( 'NONE', ( #12 ) ) ;
#97 = EDGE_LOOP ( 'NONE', ( #259 ) ) ;
#98 = APPROVAL_DATE_TIME ( #135, #42 ) ;
#99 = CYLINDRICAL_SURFACE ( 'NONE', #9, 3.700000000000000178 ) ;
#100 = ORIENTED_EDGE ( 'NONE', *, *, #185, .F. ) ;
#101 = PERSON_AND_ORGANIZATION ( #147, #250 ) ;
#102 = DIRECTION ( 'NONE',  ( -3.491481338843133355E-15, 1.224646799147353207E-16, -1.000000000000000000 ) ) ;
#103 = EDGE_CURVE ( 'NONE', #28, #28, #95, .T. ) ;
#104 = DIRECTION ( 'NONE',  ( 1.000000000000000000, 0.0000000000000000000, 0.0000000000000000000 ) ) ;
#105 = DIRECTION ( 'NONE',  ( 3.491481338843133355E-15, -0.0000000000000000000, 1.000000000000000000 ) ) ;
#106 = DIRECTION ( 'NONE',  ( 1.000000000000000000, 0.0000000000000000000, -3.750753461571474649E-15 ) ) ;
#107 = APPROVAL ( #152, 'UNSPECIFIED' ) ;
#108 = PERSON_AND_ORGANIZATION_ROLE ( 'design_owner' ) ;
#109 = VERTEX_POINT ( 'NONE', #151 ) ;
#110 = FACE_OUTER_BOUND ( 'NONE', #220, .T. ) ;
#111 = CIRCLE ( 'NONE', #115, 3.199999999999998845 ) ;
#112 = PERSON_AND_ORGANIZATION_ROLE ( 'design_supplier' ) ;
#113 = ORIENTED_EDGE ( 'NONE', *, *, #17, .T. ) ;
#114 = EDGE_LOOP ( 'NONE', ( #113 ) ) ;
#115 = AXIS2_PLACEMENT_3D ( 'NONE', #94, #176, #158 ) ;
#116 = LOCAL_TIME ( 11, 46, 10.00000000000000000, #258 ) ;
#117 = DIRECTION ( 'NONE',  ( 3.491481338843133355E-15, -1.224646799147353207E-16, 1.000000000000000000 ) ) ;
#118 = APPLICATION_PROTOCOL_DEFINITION ( 'international standard', 'config_control_design', 1994, #90 ) ;
#119 = CLOSED_SHELL ( 'NONE', ( #168, #82, #4, #30, #71, #227 ) ) ;
#120 = FACE_OUTER_BOUND ( 'NONE', #248, .T. ) ;
#121 = DIRECTION ( 'NONE',  ( 0.0000000000000000000, 1.000000000000000000, 0.0000000000000000000 ) ) ;
#122 = COORDINATED_UNIVERSAL_TIME_OFFSET ( 1, 0, .AHEAD. ) ;
#123 = CARTESIAN_POINT ( 'NONE',  ( 9.077851480992146724E-14, 4.999999999999995559, 26.00000000000000000 ) ) ;
#124 = AXIS2_PLACEMENT_3D ( 'NONE', #222, #39, #148 ) ;
#125 = DATE_AND_TIME ( #210, #188 ) ;
#126 = DATE_TIME_ROLE ( 'creation_date' ) ;
#127 = VERTEX_POINT ( 'NONE', #196 ) ;
#128 = AXIS2_PLACEMENT_3D ( 'NONE', #174, #171, #70 ) ;
#129 = APPROVAL_ROLE ( '' ) ;
#130 = UNCERTAINTY_MEASURE_WITH_UNIT (LENGTH_MEASURE( 1.000000000000000082E-05 ), #261, 'distance_accuracy_value', 'NONE');
#131 = DIRECTION ( 'NONE',  ( 3.491481338843133355E-15, -0.0000000000000000000, 1.000000000000000000 ) ) ;
#132 = DIRECTION ( 'NONE',  ( 1.000000000000000000, 0.0000000000000000000, -3.491481338843133355E-15 ) ) ;
#133 = AXIS2_PLACEMENT_3D ( 'NONE', #206, #105, #1 ) ;
#134 = APPROVAL_PERSON_ORGANIZATION ( #45, #107, #129 ) ;
#135 = DATE_AND_TIME ( #256, #195 ) ;
#136 = ORIENTED_EDGE ( 'NONE', *, *, #103, .T. ) ;
#137 = CARTESIAN_POINT ( 'NONE',  ( 0.0000000000000000000, 0.0000000000000000000, 0.0000000000000000000 ) ) ;
#138 = PERSON_AND_ORGANIZATION ( #147, #250 ) ;
#139 = ORIENTED_EDGE ( 'NONE', *, *, #244, .F. ) ;
#140 = PERSON_AND_ORGANIZATION ( #147, #250 ) ;
#141 = ORIENTED_EDGE ( 'NONE', *, *, #49, .T. ) ;
#142 = CC_DESIGN_PERSON_AND_ORGANIZATION_ASSIGNMENT ( #101, #108, ( #92 ) ) ;
#143 = ORIENTED_EDGE ( 'NONE', *, *, #69, .T. ) ;
#144 = AXIS2_PLACEMENT_3D ( 'NONE', #238, #117, #178 ) ;
#145 = CARTESIAN_POINT ( 'NONE',  ( 0.0000000000000000000, 0.0000000000000000000, 0.0000000000000000000 ) ) ;
#146 = AXIS2_PLACEMENT_3D ( 'NONE', #181, #221, #104 ) ;
#147 = PERSON ( 'UNSPECIFIED', 'UNSPECIFIED', 'UNSPECIFIED', ('UNSPECIFIED'), ('UNSPECIFIED'), ('UNSPECIFIED') ) ;
#148 = DIRECTION ( 'NONE',  ( 1.000000000000000000, 0.0000000000000000000, -3.469446951953614189E-15 ) ) ;
#149 = PRODUCT_DEFINITION ( 'UNKNOWN', '', #167, #197 ) ;
#150 = AXIS2_PLACEMENT_3D ( 'NONE', #41, #25, #106 ) ;
#151 = CARTESIAN_POINT ( 'NONE',  ( 2.199633243471174140E-13, 3.199999999999990852, 63.00000000000000000 ) ) ;
#152 = APPROVAL_STATUS ( 'not_yet_approved' ) ;
#153 = VERTEX_POINT ( 'NONE', #50 ) ;
#154 = CARTESIAN_POINT ( 'NONE',  ( 1.000000000000000444, 0.0000000000000000000, -4.792523945825740254E-15 ) ) ;
#155 = ADVANCED_FACE ( 'NONE', ( #120 ), #225, .T. ) ;
#156 = EDGE_LOOP ( 'NONE', ( #31 ) ) ;
#157 = APPROVAL_DATE_TIME ( #232, #215 ) ;
#158 = DIRECTION ( 'NONE',  ( 0.0000000000000000000, 1.000000000000000000, 0.0000000000000000000 ) ) ;
#159 = EDGE_LOOP ( 'NONE', ( #162 ) ) ;
#160 = DATE_TIME_ROLE ( 'classification_date' ) ;
#161 = LOCAL_TIME ( 11, 46, 10.00000000000000000, #122 ) ;
#162 = ORIENTED_EDGE ( 'NONE', *, *, #103, .F. ) ;
#163 = ORIENTED_EDGE ( 'NONE', *, *, #49, .F. ) ;
#164 = FACE_OUTER_BOUND ( 'NONE', #177, .T. ) ;
#165 = CIRCLE ( 'NONE', #44, 3.700000000000000178 ) ;
#166 = FACE_OUTER_BOUND ( 'NONE', #96, .T. ) ;
#167 = PRODUCT_DEFINITION_FORMATION_WITH_SPECIFIED_SOURCE ( 'ANY', '', #92, .NOT_KNOWN. ) ;
#168 = ADVANCED_FACE ( 'NONE', ( #81, #164 ), #241, .T. ) ;
#169 = FACE_OUTER_BOUND ( 'NONE', #159, .T. ) ;
#170 = VERTEX_POINT ( 'NONE', #47 ) ;
#171 = DIRECTION ( 'NONE',  ( 3.491481338843133355E-15, -1.224646799147353207E-16, 1.000000000000000000 ) ) ;
#172 = ADVANCED_BREP_SHAPE_REPRESENTATION ( '339050', ( #240, #66, #146 ), #260 ) ;
#173 = COORDINATED_UNIVERSAL_TIME_OFFSET ( 1, 0, .AHEAD. ) ;
#174 = CARTESIAN_POINT ( 'NONE',  ( 6.633814543801952113E-14, 2.999519565323711931E-32, 19.00000000000000000 ) ) ;
#175 = CIRCLE ( 'NONE', #150, 3.700000000000000178 ) ;
#176 = DIRECTION ( 'NONE',  ( -3.491481338843133355E-15, 1.224646799147353207E-16, -1.000000000000000000 ) ) ;
#177 = EDGE_LOOP ( 'NONE', ( #143 ) ) ;
#178 = DIRECTION ( 'NONE',  ( -4.275831445896958607E-31, -1.000000000000000000, -1.224646799147353207E-16 ) ) ;
#179 = APPROVAL_STATUS ( 'not_yet_approved' ) ;
#180 = FACE_OUTER_BOUND ( 'NONE', #55, .T. ) ;
#181 = CARTESIAN_POINT ( 'NONE',  ( 0.0000000000000000000, 0.0000000000000000000, 0.0000000000000000000 ) ) ;
#182 = CARTESIAN_POINT ( 'NONE',  ( -1.282749433769087757E-30, 0.0000000000000000000, -3.673940397442059868E-16 ) ) ;
#183 = FACE_OUTER_BOUND ( 'NONE', #58, .T. ) ;
#184 = DIRECTION ( 'NONE',  ( -3.491481338843133355E-15, 0.0000000000000000000, -1.000000000000000000 ) ) ;
#185 = EDGE_CURVE ( 'NONE', #46, #46, #242, .T. ) ;
#186 = CIRCLE ( 'NONE', #211, 3.999999999999997335 ) ;
#187 = PLANE ( 'NONE',  #257 ) ;
#188 = LOCAL_TIME ( 11, 46, 10.00000000000000000, #189 ) ;
#189 = COORDINATED_UNIVERSAL_TIME_OFFSET ( 1, 0, .AHEAD. ) ;
#190 = DIRECTION ( 'NONE',  ( 4.275831445896958607E-31, 1.000000000000000000, 1.224646799147353207E-16 ) ) ;
#191 = PERSON_AND_ORGANIZATION ( #147, #250 ) ;
#192 = AXIS2_PLACEMENT_3D ( 'NONE', #200, #219, #16 ) ;
#193 = DIRECTION ( 'NONE',  ( 3.491481338843133355E-15, -0.0000000000000000000, 1.000000000000000000 ) ) ;
#194 = EDGE_LOOP ( 'NONE', ( #217 ) ) ;
#195 = LOCAL_TIME ( 11, 46, 10.00000000000000000, #65 ) ;
#196 = CARTESIAN_POINT ( 'NONE',  ( 3.700000000000066347, 0.0000000000000000000, 18.99999999999998579 ) ) ;
#197 = DESIGN_CONTEXT ( 'detailed design', #77, 'design' ) ;
#198 = AXIS2_PLACEMENT_3D ( 'NONE', #229, #11, #93 ) ;
#199 = CARTESIAN_POINT ( 'NONE',  ( 2.171701392760429073E-13, -7.617303090696536944E-15, 62.20000000000000284 ) ) ;
#200 = CARTESIAN_POINT ( 'NONE',  ( 2.199633243471174140E-13, 2.399615652258959583E-32, 63.00000000000000000 ) ) ;
#201 = DIRECTION ( 'NONE',  ( 4.275831445896958607E-31, 1.000000000000000000, 1.224646799147353207E-16 ) ) ;
#202 = PERSON_AND_ORGANIZATION ( #147, #250 ) ;
#203 = EDGE_LOOP ( 'NONE', ( #141 ) ) ;
#204 = CC_DESIGN_DATE_AND_TIME_ASSIGNMENT ( #207, #126, ( #149 ) ) ;
#205 = EDGE_LOOP ( 'NONE', ( #163 ) ) ;
#206 = CARTESIAN_POINT ( 'NONE',  ( 9.077851480992146724E-14, -3.184081677783118191E-15, 26.00000000000000000 ) ) ;
#207 = DATE_AND_TIME ( #243, #161 ) ;
#208 = CC_DESIGN_PERSON_AND_ORGANIZATION_ASSIGNMENT ( #5, #3, ( #149 ) ) ;
#209 = FACE_BOUND ( 'NONE', #203, .T. ) ;
#210 = CALENDAR_DATE ( 2021, 18, 11 ) ;
#211 = AXIS2_PLACEMENT_3D ( 'NONE', #199, #59, #37 ) ;
#212 = CARTESIAN_POINT ( 'NONE',  ( 4.000000000000010658, 0.0000000000000000000, 2.999999999999984901 ) ) ;
#213 = DIRECTION ( 'NONE',  ( 1.000000000000000000, 0.0000000000000000000, -3.750753461571474649E-15 ) ) ;
#214 = AXIS2_PLACEMENT_3D ( 'NONE', #22, #102, #263 ) ;
#215 = APPROVAL ( #179, 'UNSPECIFIED' ) ;
#216 = EDGE_LOOP ( 'NONE', ( #52 ) ) ;
#217 = ORIENTED_EDGE ( 'NONE', *, *, #228, .T. ) ;
#218 = EDGE_LOOP ( 'NONE', ( #74 ) ) ;
#219 = DIRECTION ( 'NONE',  ( -3.491481338843133355E-15, 1.224646799147353207E-16, -1.000000000000000000 ) ) ;
#220 = EDGE_LOOP ( 'NONE', ( #139 ) ) ;
#221 = DIRECTION ( 'NONE',  ( 0.0000000000000000000, 0.0000000000000000000, 1.000000000000000000 ) ) ;
#222 = CARTESIAN_POINT ( 'NONE',  ( 1.047444401652939533E-14, 0.0000000000000000000, 2.999999999999998668 ) ) ;
#223 = APPROVAL_DATE_TIME ( #125, #107 ) ;
#224 = DIRECTION ( 'NONE',  ( -1.000000000000000000, 0.0000000000000000000, 3.491481338843133355E-15 ) ) ;
#225 = PLANE ( 'NONE',  #214 ) ;
#226 = CC_DESIGN_PERSON_AND_ORGANIZATION_ASSIGNMENT ( #140, #72, ( #167 ) ) ;
#227 = ADVANCED_FACE ( 'NONE', ( #110 ), #43, .F. ) ;
#228 = EDGE_CURVE ( 'NONE', #10, #10, #78, .T. ) ;
#229 = CARTESIAN_POINT ( 'NONE',  ( 6.633814543801952113E-14, -2.326828918379970970E-15, 19.00000000000000000 ) ) ;
#230 = LOCAL_TIME ( 11, 46, 10.00000000000000000, #173 ) ;
#231 = CARTESIAN_POINT ( 'NONE',  ( 6.633814543801952113E-14, 0.0000000000000000000, 19.00000000000000000 ) ) ;
#232 = DATE_AND_TIME ( #76, #116 ) ;
#233 = PERSON_AND_ORGANIZATION_ROLE ( 'classification_officer' ) ;
#234 = SHAPE_DEFINITION_REPRESENTATION ( #251, #172 ) ;
#235 = FACE_OUTER_BOUND ( 'NONE', #156, .T. ) ;
#236 = CONICAL_SURFACE ( 'NONE', #245, 3.999999999999997335, 0.7853981633974504994 ) ;
#237 = CC_DESIGN_PERSON_AND_ORGANIZATION_ASSIGNMENT ( #253, #112, ( #167 ) ) ;
#238 = CARTESIAN_POINT ( 'NONE',  ( 6.633814543801952113E-14, 2.999519565323711931E-32, 19.00000000000000000 ) ) ;
#239 = ADVANCED_FACE ( 'NONE', ( #7, #169 ), #29, .T. ) ;
#240 = MANIFOLD_SOLID_BREP ( 'Corps-Déplacer/Copier1[1]', #119 ) ;
#241 = CYLINDRICAL_SURFACE ( 'NONE', #8, 3.999999999999998224 ) ;
#242 = CIRCLE ( 'NONE', #198, 4.000000000000000000 ) ;
#243 = CALENDAR_DATE ( 2021, 18, 11 ) ;
#244 = EDGE_CURVE ( 'NONE', #127, #127, #165, .T. ) ;
#245 = AXIS2_PLACEMENT_3D ( 'NONE', #63, #61, #121 ) ;
#246 = CARTESIAN_POINT ( 'NONE',  ( 6.633814543801952113E-14, 3.999999999999997335, 19.00000000000000000 ) ) ;
#247 = CARTESIAN_POINT ( 'NONE',  ( 1.047444401652939533E-14, 0.0000000000000000000, 2.999999999999998668 ) ) ;
#248 = EDGE_LOOP ( 'NONE', ( #262 ) ) ;
#249 = SECURITY_CLASSIFICATION ( '', '', #15 ) ;
#250 = ORGANIZATION ( 'UNSPECIFIED', 'UNSPECIFIED', '' ) ;
#251 = PRODUCT_DEFINITION_SHAPE ( 'NONE', 'NONE',  #149 ) ;
#252 = ORIENTED_EDGE ( 'NONE', *, *, #69, .F. ) ;
#253 = PERSON_AND_ORGANIZATION ( #147, #250 ) ;
#254 = DIRECTION ( 'NONE',  ( 1.000000000000000000, 0.0000000000000000000, -3.491481338843133355E-15 ) ) ;
#255 = FACE_OUTER_BOUND ( 'NONE', #216, .T. ) ;
#256 = CALENDAR_DATE ( 2021, 18, 11 ) ;
#257 = AXIS2_PLACEMENT_3D ( 'NONE', #123, #184, #224 ) ;
#258 = COORDINATED_UNIVERSAL_TIME_OFFSET ( 1, 0, .AHEAD. ) ;
#259 = ORIENTED_EDGE ( 'NONE', *, *, #62, .F. ) ;
#260 =( GEOMETRIC_REPRESENTATION_CONTEXT ( 3 ) GLOBAL_UNCERTAINTY_ASSIGNED_CONTEXT ( ( #130 ) ) GLOBAL_UNIT_ASSIGNED_CONTEXT ( ( #261, #67, #68 ) ) REPRESENTATION_CONTEXT ( 'NONE', 'WORKASPACE' ) );
#261 =( LENGTH_UNIT ( ) NAMED_UNIT ( * ) SI_UNIT ( .MILLI., .METRE. ) );
#262 = ORIENTED_EDGE ( 'NONE', *, *, #228, .F. ) ;
#263 = DIRECTION ( 'NONE',  ( 4.275831445896958607E-31, 1.000000000000000000, 1.224646799147353207E-16 ) ) ;
ENDSEC;
END-ISO-10303-21;
