ISO-10303-21;
HEADER;
FILE_DESCRIPTION (( 'STEP AP203' ),
    '1' );
FILE_NAME ('339049.step',
    '2021-11-18T10:46:09',
    ( '' ),
    ( '' ),
    'SwSTEP 2.0',
    'SolidWorks 2019',
    '' );
FILE_SCHEMA (( 'CONFIG_CONTROL_DESIGN' ));
ENDSEC;

DATA;
#1 = DIRECTION ( 'NONE',  ( 4.275831445896958607E-31, 1.000000000000000000, 1.224646799147353207E-16 ) ) ;
#2 = CARTESIAN_POINT ( 'NONE',  ( 4.000000000000007105, 0.0000000000000000000, 1.999999999999984901 ) ) ;
#3 = DATE_AND_TIME ( #58, #134 ) ;
#4 = AXIS2_PLACEMENT_3D ( 'NONE', #46, #191, #170 ) ;
#5 = DIRECTION ( 'NONE',  ( -3.491481338843133355E-15, 1.224646799147353207E-16, -1.000000000000000000 ) ) ;
#6 = EDGE_CURVE ( 'NONE', #202, #202, #241, .T. ) ;
#7 = PRODUCT_DEFINITION_FORMATION_WITH_SPECIFIED_SOURCE ( 'ANY', '', #172, .NOT_KNOWN. ) ;
#8 = APPLICATION_PROTOCOL_DEFINITION ( 'international standard', 'config_control_design', 1994, #123 ) ;
#9 = APPLICATION_CONTEXT ( 'configuration controlled 3d designs of mechanical parts and assemblies' ) ;
#10 = PLANE ( 'NONE',  #127 ) ;
#11 = FACE_OUTER_BOUND ( 'NONE', #21, .T. ) ;
#12 = LOCAL_TIME ( 11, 46, 9.000000000000000000, #125 ) ;
#13 = DIRECTION ( 'NONE',  ( -3.491481338843133355E-15, 1.224646799147353207E-16, -1.000000000000000000 ) ) ;
#14 = CARTESIAN_POINT ( 'NONE',  ( 6.633814543801952113E-14, 0.0000000000000000000, 19.00000000000000000 ) ) ;
#15 = CARTESIAN_POINT ( 'NONE',  ( 2.199633243471174140E-13, -7.715274834628325378E-15, 63.00000000000000000 ) ) ;
#16 = CALENDAR_DATE ( 2021, 18, 11 ) ;
#17 = CARTESIAN_POINT ( 'NONE',  ( 3.700000000000066347, 0.0000000000000000000, 18.99999999999998579 ) ) ;
#18 = PERSON_AND_ORGANIZATION ( #143, #118 ) ;
#19 = DATE_AND_TIME ( #16, #40 ) ;
#20 = DIRECTION ( 'NONE',  ( 4.275831445896958607E-31, 1.000000000000000000, 1.224646799147353207E-16 ) ) ;
#21 = EDGE_LOOP ( 'NONE', ( #124 ) ) ;
#22 = COORDINATED_UNIVERSAL_TIME_OFFSET ( 1, 0, .AHEAD. ) ;
#23 = AXIS2_PLACEMENT_3D ( 'NONE', #231, #74, #232 ) ;
#24 = DIRECTION ( 'NONE',  ( -3.491481338843133355E-15, 1.224646799147353207E-16, -1.000000000000000000 ) ) ;
#25 = APPROVAL_STATUS ( 'not_yet_approved' ) ;
#26 = AXIS2_PLACEMENT_3D ( 'NONE', #220, #36, #114 ) ;
#27 = DIRECTION ( 'NONE',  ( 3.491481338843133355E-15, -1.224646799147353207E-16, 1.000000000000000000 ) ) ;
#28 = EDGE_CURVE ( 'NONE', #120, #120, #238, .T. ) ;
#29 = PLANE ( 'NONE',  #71 ) ;
#30 = AXIS2_PLACEMENT_3D ( 'NONE', #219, #113, #84 ) ;
#31 = PRODUCT_DEFINITION_SHAPE ( 'NONE', 'NONE',  #101 ) ;
#32 = ORIENTED_EDGE ( 'NONE', *, *, #239, .F. ) ;
#33 = APPROVAL ( #73, 'UNSPECIFIED' ) ;
#34 = DIRECTION ( 'NONE',  ( -3.491481338843133355E-15, 1.224646799147353207E-16, -1.000000000000000000 ) ) ;
#35 = EDGE_LOOP ( 'NONE', ( #164 ) ) ;
#36 = DIRECTION ( 'NONE',  ( 3.491481338843133355E-15, -0.0000000000000000000, 1.000000000000000000 ) ) ;
#37 = DIRECTION ( 'NONE',  ( 3.491481338843133355E-15, -0.0000000000000000000, 1.000000000000000000 ) ) ;
#38 = EDGE_LOOP ( 'NONE', ( #115 ) ) ;
#39 = APPROVAL_ROLE ( '' ) ;
#40 = LOCAL_TIME ( 11, 46, 9.000000000000000000, #47 ) ;
#41 = CIRCLE ( 'NONE', #49, 4.000000000000000000 ) ;
#42 = FACE_OUTER_BOUND ( 'NONE', #75, .T. ) ;
#43 = PERSON_AND_ORGANIZATION ( #143, #118 ) ;
#44 = DIRECTION ( 'NONE',  ( 3.491481338843133355E-15, -0.0000000000000000000, 1.000000000000000000 ) ) ;
#45 = PERSON_AND_ORGANIZATION ( #143, #118 ) ;
#46 = CARTESIAN_POINT ( 'NONE',  ( 9.077851480992146724E-14, 0.0000000000000000000, 26.00000000000000000 ) ) ;
#47 = COORDINATED_UNIVERSAL_TIME_OFFSET ( 1, 0, .AHEAD. ) ;
#48 =( NAMED_UNIT ( * ) SI_UNIT ( $, .STERADIAN. ) SOLID_ANGLE_UNIT ( ) );
#49 = AXIS2_PLACEMENT_3D ( 'NONE', #247, #130, #102 ) ;
#50 = CIRCLE ( 'NONE', #221, 3.999999999999998224 ) ;
#51 = APPROVAL_DATE_TIME ( #215, #33 ) ;
#52 = ORIENTED_EDGE ( 'NONE', *, *, #239, .T. ) ;
#53 = ORIENTED_EDGE ( 'NONE', *, *, #187, .T. ) ;
#54 = CYLINDRICAL_SURFACE ( 'NONE', #210, 3.700000000000000178 ) ;
#55 = CIRCLE ( 'NONE', #204, 3.199999999999998845 ) ;
#56 = LOCAL_TIME ( 11, 46, 9.000000000000000000, #174 ) ;
#57 = EDGE_LOOP ( 'NONE', ( #53 ) ) ;
#58 = CALENDAR_DATE ( 2021, 18, 11 ) ;
#59 = SECURITY_CLASSIFICATION ( '', '', #121 ) ;
#60 = VERTEX_POINT ( 'NONE', #222 ) ;
#61 = ORIENTED_EDGE ( 'NONE', *, *, #6, .F. ) ;
#62 = PERSON_AND_ORGANIZATION_ROLE ( 'classification_officer' ) ;
#63 = CARTESIAN_POINT ( 'NONE',  ( -1.282749433769087757E-30, 0.0000000000000000000, -3.673940397442059868E-16 ) ) ;
#64 = DIRECTION ( 'NONE',  ( 0.0000000000000000000, 1.000000000000000000, 0.0000000000000000000 ) ) ;
#65 = FACE_OUTER_BOUND ( 'NONE', #35, .T. ) ;
#66 = DIRECTION ( 'NONE',  ( 1.000000000000000000, 0.0000000000000000000, -3.750753461571474649E-15 ) ) ;
#67 = AXIS2_PLACEMENT_3D ( 'NONE', #129, #24, #148 ) ;
#68 = DIRECTION ( 'NONE',  ( -3.491481338843133355E-15, 1.224646799147353207E-16, -1.000000000000000000 ) ) ;
#69 = VERTEX_POINT ( 'NONE', #83 ) ;
#70 = FACE_OUTER_BOUND ( 'NONE', #38, .T. ) ;
#71 = AXIS2_PLACEMENT_3D ( 'NONE', #135, #157, #103 ) ;
#72 = FACE_BOUND ( 'NONE', #139, .T. ) ;
#73 = APPROVAL_STATUS ( 'not_yet_approved' ) ;
#74 = DIRECTION ( 'NONE',  ( -3.491481338843133355E-15, 1.224646799147353207E-16, -1.000000000000000000 ) ) ;
#75 = EDGE_LOOP ( 'NONE', ( #61 ) ) ;
#76 = EDGE_LOOP ( 'NONE', ( #195 ) ) ;
#77 = MANIFOLD_SOLID_BREP ( 'Corps-Déplacer/Copier1[1]', #142 ) ;
#78 = CARTESIAN_POINT ( 'NONE',  ( 2.000000000000000444, 0.0000000000000000000, -8.284005284668873609E-15 ) ) ;
#79 = CC_DESIGN_PERSON_AND_ORGANIZATION_ASSIGNMENT ( #243, #62, ( #59 ) ) ;
#80 = EDGE_LOOP ( 'NONE', ( #218 ) ) ;
#81 = DATE_TIME_ROLE ( 'classification_date' ) ;
#82 = DIRECTION ( 'NONE',  ( 1.000000000000000000, 0.0000000000000000000, 0.0000000000000000000 ) ) ;
#83 = CARTESIAN_POINT ( 'NONE',  ( 6.633814543801952113E-14, 3.999999999999997335, 19.00000000000000000 ) ) ;
#84 = DIRECTION ( 'NONE',  ( 1.000000000000000000, 0.0000000000000000000, -3.491481338843133355E-15 ) ) ;
#85 = CARTESIAN_POINT ( 'NONE',  ( 0.0000000000000000000, 0.0000000000000000000, 0.0000000000000000000 ) ) ;
#86 =( GEOMETRIC_REPRESENTATION_CONTEXT ( 3 ) GLOBAL_UNCERTAINTY_ASSIGNED_CONTEXT ( ( #132 ) ) GLOBAL_UNIT_ASSIGNED_CONTEXT ( ( #244, #227, #48 ) ) REPRESENTATION_CONTEXT ( 'NONE', 'WORKASPACE' ) );
#87 = EDGE_CURVE ( 'NONE', #184, #184, #41, .T. ) ;
#88 = ADVANCED_BREP_SHAPE_REPRESENTATION ( '339049', ( #77, #251, #234 ), #86 ) ;
#89 = CYLINDRICAL_SURFACE ( 'NONE', #261, 3.999999999999998224 ) ;
#90 = ADVANCED_FACE ( 'NONE', ( #126 ), #211, .F. ) ;
#91 = FACE_OUTER_BOUND ( 'NONE', #175, .T. ) ;
#92 = CARTESIAN_POINT ( 'NONE',  ( 0.0000000000000000000, 0.0000000000000000000, 0.0000000000000000000 ) ) ;
#93 = PERSON_AND_ORGANIZATION ( #143, #118 ) ;
#94 = EDGE_CURVE ( 'NONE', #122, #122, #105, .T. ) ;
#95 = APPROVAL_STATUS ( 'not_yet_approved' ) ;
#96 = APPROVAL ( #25, 'UNSPECIFIED' ) ;
#97 = COORDINATED_UNIVERSAL_TIME_OFFSET ( 1, 0, .AHEAD. ) ;
#98 = FACE_OUTER_BOUND ( 'NONE', #179, .T. ) ;
#99 = CONICAL_SURFACE ( 'NONE', #23, 3.999999999999997335, 0.7853981633974504994 ) ;
#100 = CARTESIAN_POINT ( 'NONE',  ( 6.633814543801952113E-14, 2.999519565323711931E-32, 19.00000000000000000 ) ) ;
#101 = PRODUCT_DEFINITION ( 'UNKNOWN', '', #7, #151 ) ;
#102 = DIRECTION ( 'NONE',  ( 1.000000000000000000, 0.0000000000000000000, -3.469446951953614189E-15 ) ) ;
#103 = DIRECTION ( 'NONE',  ( -1.000000000000000000, 0.0000000000000000000, 3.491481338843133355E-15 ) ) ;
#104 = CC_DESIGN_DATE_AND_TIME_ASSIGNMENT ( #185, #81, ( #59 ) ) ;
#105 = CIRCLE ( 'NONE', #136, 3.999999999999997335 ) ;
#106 = FACE_OUTER_BOUND ( 'NONE', #236, .T. ) ;
#107 = ORIENTED_EDGE ( 'NONE', *, *, #140, .F. ) ;
#108 = APPROVAL_ROLE ( '' ) ;
#109 = DIRECTION ( 'NONE',  ( 0.0000000000000000000, 1.000000000000000000, 0.0000000000000000000 ) ) ;
#110 = EDGE_LOOP ( 'NONE', ( #260 ) ) ;
#111 = CLOSED_SHELL ( 'NONE', ( #149, #212, #223, #259 ) ) ;
#112 = CC_DESIGN_SECURITY_CLASSIFICATION ( #59, ( #7 ) ) ;
#113 = DIRECTION ( 'NONE',  ( 3.491481338843133355E-15, -0.0000000000000000000, 1.000000000000000000 ) ) ;
#114 = DIRECTION ( 'NONE',  ( 1.000000000000000000, 0.0000000000000000000, -3.491481338843133355E-15 ) ) ;
#115 = ORIENTED_EDGE ( 'NONE', *, *, #253, .T. ) ;
#116 = DIRECTION ( 'NONE',  ( -3.491481338843133355E-15, 1.224646799147353207E-16, -1.000000000000000000 ) ) ;
#117 = DATE_AND_TIME ( #162, #137 ) ;
#118 = ORGANIZATION ( 'UNSPECIFIED', 'UNSPECIFIED', '' ) ;
#119 = APPROVAL_DATE_TIME ( #3, #250 ) ;
#120 = VERTEX_POINT ( 'NONE', #17 ) ;
#121 = SECURITY_CLASSIFICATION_LEVEL ( 'unclassified' ) ;
#122 = VERTEX_POINT ( 'NONE', #240 ) ;
#123 = APPLICATION_CONTEXT ( 'configuration controlled 3d designs of mechanical parts and assemblies' ) ;
#124 = ORIENTED_EDGE ( 'NONE', *, *, #87, .F. ) ;
#125 = COORDINATED_UNIVERSAL_TIME_OFFSET ( 1, 0, .AHEAD. ) ;
#126 = FACE_OUTER_BOUND ( 'NONE', #76, .T. ) ;
#127 = AXIS2_PLACEMENT_3D ( 'NONE', #173, #158, #233 ) ;
#128 = MECHANICAL_CONTEXT ( 'NONE', #9, 'mechanical' ) ;
#129 = CARTESIAN_POINT ( 'NONE',  ( 2.199633243471174140E-13, 2.399615652258959583E-32, 63.00000000000000000 ) ) ;
#130 = DIRECTION ( 'NONE',  ( 3.491481338843133355E-15, -0.0000000000000000000, 1.000000000000000000 ) ) ;
#131 = DIRECTION ( 'NONE',  ( -1.000000000000000000, 0.0000000000000000000, 3.469446951953615767E-15 ) ) ;
#132 = UNCERTAINTY_MEASURE_WITH_UNIT (LENGTH_MEASURE( 1.000000000000000082E-05 ), #244, 'distance_accuracy_value', 'NONE');
#133 = AXIS2_PLACEMENT_3D ( 'NONE', #14, #169, #66 ) ;
#134 = LOCAL_TIME ( 11, 46, 9.000000000000000000, #97 ) ;
#135 = CARTESIAN_POINT ( 'NONE',  ( 9.077851480992146724E-14, 4.999999999999995559, 26.00000000000000000 ) ) ;
#136 = AXIS2_PLACEMENT_3D ( 'NONE', #188, #5, #64 ) ;
#137 = LOCAL_TIME ( 11, 46, 9.000000000000000000, #22 ) ;
#138 = SHAPE_DEFINITION_REPRESENTATION ( #31, #88 ) ;
#139 = EDGE_LOOP ( 'NONE', ( #257 ) ) ;
#140 = EDGE_CURVE ( 'NONE', #60, #60, #197, .T. ) ;
#141 = ORIENTED_EDGE ( 'NONE', *, *, #87, .T. ) ;
#142 = CLOSED_SHELL ( 'NONE', ( #246, #206, #256, #216, #194, #90 ) ) ;
#143 = PERSON ( 'UNSPECIFIED', 'UNSPECIFIED', 'UNSPECIFIED', ('UNSPECIFIED'), ('UNSPECIFIED'), ('UNSPECIFIED') ) ;
#144 = PERSON_AND_ORGANIZATION_ROLE ( 'design_supplier' ) ;
#145 = EDGE_LOOP ( 'NONE', ( #208 ) ) ;
#146 = PRODUCT_RELATED_PRODUCT_CATEGORY ( 'detail', '', ( #172 ) ) ;
#147 = DIRECTION ( 'NONE',  ( 0.0000000000000000000, 0.0000000000000000000, 1.000000000000000000 ) ) ;
#148 = DIRECTION ( 'NONE',  ( 4.275831445896958607E-31, 1.000000000000000000, 1.224646799147353207E-16 ) ) ;
#149 = ADVANCED_FACE ( 'NONE', ( #249, #70 ), #155, .T. ) ;
#150 = AXIS2_PLACEMENT_3D ( 'NONE', #258, #34, #182 ) ;
#151 = DESIGN_CONTEXT ( 'detailed design', #123, 'design' ) ;
#152 = DIRECTION ( 'NONE',  ( 4.275831445896958607E-31, 1.000000000000000000, 1.224646799147353207E-16 ) ) ;
#153 = PERSON_AND_ORGANIZATION_ROLE ( 'design_owner' ) ;
#154 = DIRECTION ( 'NONE',  ( -4.275831445896958607E-31, -1.000000000000000000, -1.224646799147353207E-16 ) ) ;
#155 = CYLINDRICAL_SURFACE ( 'NONE', #156, 4.000000000000000000 ) ;
#156 = AXIS2_PLACEMENT_3D ( 'NONE', #85, #68, #152 ) ;
#157 = DIRECTION ( 'NONE',  ( -3.491481338843133355E-15, 0.0000000000000000000, -1.000000000000000000 ) ) ;
#158 = DIRECTION ( 'NONE',  ( 3.491481338843133355E-15, -1.224646799147353207E-16, 1.000000000000000000 ) ) ;
#159 = APPROVAL_PERSON_ORGANIZATION ( #45, #96, #248 ) ;
#160 = ORIENTED_EDGE ( 'NONE', *, *, #6, .T. ) ;
#161 = TOROIDAL_SURFACE ( 'NONE', #30, 2.000000000000000000, 2.000000000000000000 ) ;
#162 = CALENDAR_DATE ( 2021, 18, 11 ) ;
#163 = DATE_TIME_ROLE ( 'creation_date' ) ;
#164 = ORIENTED_EDGE ( 'NONE', *, *, #94, .T. ) ;
#165 = CC_DESIGN_PERSON_AND_ORGANIZATION_ASSIGNMENT ( #18, #144, ( #7 ) ) ;
#166 = VERTEX_POINT ( 'NONE', #186 ) ;
#167 = APPLICATION_PROTOCOL_DEFINITION ( 'international standard', 'config_control_design', 1994, #9 ) ;
#168 = CARTESIAN_POINT ( 'NONE',  ( -3.999999999999907185, -3.184081677783118191E-15, 26.00000000000001421 ) ) ;
#169 = DIRECTION ( 'NONE',  ( 3.491481338843133355E-15, -0.0000000000000000000, 1.000000000000000000 ) ) ;
#170 = DIRECTION ( 'NONE',  ( 1.000000000000000000, 0.0000000000000000000, -3.750753461571474649E-15 ) ) ;
#171 = VERTEX_POINT ( 'NONE', #168 ) ;
#172 = PRODUCT ( '339049', '339049', '', ( #128 ) ) ;
#173 = CARTESIAN_POINT ( 'NONE',  ( 6.633814543801952113E-14, 2.999519565323711931E-32, 19.00000000000000000 ) ) ;
#174 = COORDINATED_UNIVERSAL_TIME_OFFSET ( 1, 0, .AHEAD. ) ;
#175 = EDGE_LOOP ( 'NONE', ( #160 ) ) ;
#176 = CC_DESIGN_APPROVAL ( #250, ( #7 ) ) ;
#177 = DIRECTION ( 'NONE',  ( -3.491481338843133355E-15, 1.224646799147353207E-16, -1.000000000000000000 ) ) ;
#178 = PERSON_AND_ORGANIZATION_ROLE ( 'creator' ) ;
#179 = EDGE_LOOP ( 'NONE', ( #32 ) ) ;
#180 = APPROVAL_DATE_TIME ( #19, #96 ) ;
#181 = PLANE ( 'NONE',  #217 ) ;
#182 = DIRECTION ( 'NONE',  ( 0.0000000000000000000, 1.000000000000000000, 0.0000000000000000000 ) ) ;
#183 = PERSON_AND_ORGANIZATION_ROLE ( 'creator' ) ;
#184 = VERTEX_POINT ( 'NONE', #2 ) ;
#185 = DATE_AND_TIME ( #209, #12 ) ;
#186 = CARTESIAN_POINT ( 'NONE',  ( 2.199633243471174140E-13, 3.199999999999990852, 63.00000000000000000 ) ) ;
#187 = EDGE_CURVE ( 'NONE', #171, #171, #50, .T. ) ;
#188 = CARTESIAN_POINT ( 'NONE',  ( 2.171701392760429073E-13, -7.617303090696536944E-15, 62.20000000000000284 ) ) ;
#189 = PERSON_AND_ORGANIZATION ( #143, #118 ) ;
#190 = CARTESIAN_POINT ( 'NONE',  ( 0.0000000000000000000, 0.0000000000000000000, 0.0000000000000000000 ) ) ;
#191 = DIRECTION ( 'NONE',  ( 3.491481338843133355E-15, -0.0000000000000000000, 1.000000000000000000 ) ) ;
#192 = CC_DESIGN_PERSON_AND_ORGANIZATION_ASSIGNMENT ( #43, #153, ( #172 ) ) ;
#193 = FACE_OUTER_BOUND ( 'NONE', #80, .T. ) ;
#194 = ADVANCED_FACE ( 'NONE', ( #214, #72 ), #29, .T. ) ;
#195 = ORIENTED_EDGE ( 'NONE', *, *, #28, .F. ) ;
#196 = CALENDAR_DATE ( 2021, 18, 11 ) ;
#197 = CIRCLE ( 'NONE', #4, 3.700000000000000178 ) ;
#198 = APPROVAL_PERSON_ORGANIZATION ( #189, #33, #108 ) ;
#199 = FACE_OUTER_BOUND ( 'NONE', #237, .T. ) ;
#200 = EDGE_LOOP ( 'NONE', ( #141 ) ) ;
#201 = DIRECTION ( 'NONE',  ( 1.000000000000000000, 0.0000000000000000000, -3.491481338843133355E-15 ) ) ;
#202 = VERTEX_POINT ( 'NONE', #78 ) ;
#203 = CARTESIAN_POINT ( 'NONE',  ( -8.551662891793915461E-31, 2.999519565323715216E-32, -2.449293598294706414E-16 ) ) ;
#204 = AXIS2_PLACEMENT_3D ( 'NONE', #15, #13, #109 ) ;
#205 = PERSON_AND_ORGANIZATION ( #143, #118 ) ;
#206 = ADVANCED_FACE ( 'NONE', ( #252, #106 ), #99, .T. ) ;
#207 = FACE_OUTER_BOUND ( 'NONE', #57, .T. ) ;
#208 = ORIENTED_EDGE ( 'NONE', *, *, #28, .T. ) ;
#209 = CALENDAR_DATE ( 2021, 18, 11 ) ;
#210 = AXIS2_PLACEMENT_3D ( 'NONE', #63, #37, #201 ) ;
#211 = PLANE ( 'NONE',  #245 ) ;
#212 = ADVANCED_FACE ( 'NONE', ( #193 ), #10, .T. ) ;
#213 = CC_DESIGN_DATE_AND_TIME_ASSIGNMENT ( #117, #163, ( #101 ) ) ;
#214 = FACE_OUTER_BOUND ( 'NONE', #110, .T. ) ;
#215 = DATE_AND_TIME ( #196, #56 ) ;
#216 = ADVANCED_FACE ( 'NONE', ( #230, #199 ), #54, .T. ) ;
#217 = AXIS2_PLACEMENT_3D ( 'NONE', #203, #116, #1 ) ;
#218 = ORIENTED_EDGE ( 'NONE', *, *, #253, .F. ) ;
#219 = CARTESIAN_POINT ( 'NONE',  ( 6.982962677686261977E-15, 0.0000000000000000000, 1.999999999999998668 ) ) ;
#220 = CARTESIAN_POINT ( 'NONE',  ( -4.542565983319587431E-30, 0.0000000000000000000, -1.301042606982605321E-15 ) ) ;
#221 = AXIS2_PLACEMENT_3D ( 'NONE', #228, #44, #131 ) ;
#222 = CARTESIAN_POINT ( 'NONE',  ( 3.700000000000090772, 0.0000000000000000000, 25.99999999999998579 ) ) ;
#223 = ADVANCED_FACE ( 'NONE', ( #91, #11 ), #161, .T. ) ;
#224 = PERSON_AND_ORGANIZATION ( #143, #118 ) ;
#225 = CC_DESIGN_PERSON_AND_ORGANIZATION_ASSIGNMENT ( #205, #183, ( #7 ) ) ;
#226 = CIRCLE ( 'NONE', #150, 4.000000000000000000 ) ;
#227 =( NAMED_UNIT ( * ) PLANE_ANGLE_UNIT ( ) SI_UNIT ( $, .RADIAN. ) );
#228 = CARTESIAN_POINT ( 'NONE',  ( 9.077851480992146724E-14, -3.184081677783118191E-15, 26.00000000000000000 ) ) ;
#229 = CC_DESIGN_APPROVAL ( #33, ( #59 ) ) ;
#230 = FACE_OUTER_BOUND ( 'NONE', #145, .T. ) ;
#231 = CARTESIAN_POINT ( 'NONE',  ( 2.171701392760429073E-13, -7.617303090696536944E-15, 62.20000000000000284 ) ) ;
#232 = DIRECTION ( 'NONE',  ( 0.0000000000000000000, 1.000000000000000000, 0.0000000000000000000 ) ) ;
#233 = DIRECTION ( 'NONE',  ( -4.275831445896958607E-31, -1.000000000000000000, -1.224646799147353207E-16 ) ) ;
#234 = AXIS2_PLACEMENT_3D ( 'NONE', #190, #147, #82 ) ;
#235 = ORIENTED_EDGE ( 'NONE', *, *, #94, .F. ) ;
#236 = EDGE_LOOP ( 'NONE', ( #235 ) ) ;
#237 = EDGE_LOOP ( 'NONE', ( #107 ) ) ;
#238 = CIRCLE ( 'NONE', #133, 3.700000000000000178 ) ;
#239 = EDGE_CURVE ( 'NONE', #166, #166, #55, .T. ) ;
#240 = CARTESIAN_POINT ( 'NONE',  ( 2.171701392760429073E-13, 3.999999999999989786, 62.20000000000000284 ) ) ;
#241 = CIRCLE ( 'NONE', #26, 2.000000000000000444 ) ;
#242 = EDGE_LOOP ( 'NONE', ( #52 ) ) ;
#243 = PERSON_AND_ORGANIZATION ( #143, #118 ) ;
#244 =( LENGTH_UNIT ( ) NAMED_UNIT ( * ) SI_UNIT ( .MILLI., .METRE. ) );
#245 = AXIS2_PLACEMENT_3D ( 'NONE', #100, #27, #154 ) ;
#246 = ADVANCED_FACE ( 'NONE', ( #65, #207 ), #89, .T. ) ;
#247 = CARTESIAN_POINT ( 'NONE',  ( 6.982962677686261977E-15, 0.0000000000000000000, 1.999999999999998668 ) ) ;
#248 = APPROVAL_ROLE ( '' ) ;
#249 = FACE_OUTER_BOUND ( 'NONE', #200, .T. ) ;
#250 = APPROVAL ( #95, 'UNSPECIFIED' ) ;
#251 = MANIFOLD_SOLID_BREP ( 'Corps-Déplacer/Copier1[2]', #111 ) ;
#252 = FACE_BOUND ( 'NONE', #242, .T. ) ;
#253 = EDGE_CURVE ( 'NONE', #69, #69, #226, .T. ) ;
#254 = APPROVAL_PERSON_ORGANIZATION ( #224, #250, #39 ) ;
#255 = PLANE ( 'NONE',  #67 ) ;
#256 = ADVANCED_FACE ( 'NONE', ( #98 ), #255, .F. ) ;
#257 = ORIENTED_EDGE ( 'NONE', *, *, #140, .T. ) ;
#258 = CARTESIAN_POINT ( 'NONE',  ( 6.633814543801952113E-14, -2.326828918379970970E-15, 19.00000000000000000 ) ) ;
#259 = ADVANCED_FACE ( 'NONE', ( #42 ), #181, .T. ) ;
#260 = ORIENTED_EDGE ( 'NONE', *, *, #187, .F. ) ;
#261 = AXIS2_PLACEMENT_3D ( 'NONE', #92, #177, #20 ) ;
#262 = CC_DESIGN_APPROVAL ( #96, ( #101 ) ) ;
#263 = CC_DESIGN_PERSON_AND_ORGANIZATION_ASSIGNMENT ( #93, #178, ( #101 ) ) ;
ENDSEC;
END-ISO-10303-21;
