ISO-10303-21;
HEADER;
FILE_DESCRIPTION (( 'STEP AP203' ),
    '1' );
FILE_NAME ('339048.step',
    '2021-11-18T10:46:09',
    ( '' ),
    ( '' ),
    'SwSTEP 2.0',
    'SolidWorks 2019',
    '' );
FILE_SCHEMA (( 'CONFIG_CONTROL_DESIGN' ));
ENDSEC;

DATA;
#1 = APPROVAL_STATUS ( 'not_yet_approved' ) ;
#2 = DATE_AND_TIME ( #219, #135 ) ;
#3 = CIRCLE ( 'NONE', #42, 3.700000000000000178 ) ;
#4 = DIRECTION ( 'NONE',  ( -4.275831445896958607E-31, -1.000000000000000000, -1.224646799147353207E-16 ) ) ;
#5 = PERSON_AND_ORGANIZATION_ROLE ( 'classification_officer' ) ;
#6 = AXIS2_PLACEMENT_3D ( 'NONE', #231, #258, #167 ) ;
#7 = CARTESIAN_POINT ( 'NONE',  ( 9.077851480992146724E-14, -3.184081677783118191E-15, 26.00000000000000000 ) ) ;
#8 = EDGE_CURVE ( 'NONE', #143, #143, #76, .T. ) ;
#9 = ORIENTED_EDGE ( 'NONE', *, *, #204, .T. ) ;
#10 = SHAPE_DEFINITION_REPRESENTATION ( #70, #252 ) ;
#11 = EDGE_LOOP ( 'NONE', ( #78 ) ) ;
#12 = PLANE ( 'NONE',  #128 ) ;
#13 = FACE_OUTER_BOUND ( 'NONE', #120, .T. ) ;
#14 = DIRECTION ( 'NONE',  ( 4.275831445896958607E-31, 1.000000000000000000, 1.224646799147353207E-16 ) ) ;
#15 = CARTESIAN_POINT ( 'NONE',  ( 3.700000000000066347, 0.0000000000000000000, 18.99999999999998579 ) ) ;
#16 = VERTEX_POINT ( 'NONE', #126 ) ;
#17 = APPLICATION_CONTEXT ( 'configuration controlled 3d designs of mechanical parts and assemblies' ) ;
#18 = DIRECTION ( 'NONE',  ( 1.000000000000000000, 0.0000000000000000000, -3.750753461571474649E-15 ) ) ;
#19 = MANIFOLD_SOLID_BREP ( 'Corps-Déplacer/Copier1[1]', #158 ) ;
#20 = CLOSED_SHELL ( 'NONE', ( #216, #129, #202, #253 ) ) ;
#21 = PERSON_AND_ORGANIZATION ( #172, #83 ) ;
#22 = CIRCLE ( 'NONE', #173, 4.000000000000000000 ) ;
#23 = APPROVAL_ROLE ( '' ) ;
#24 = APPROVAL_DATE_TIME ( #221, #161 ) ;
#25 = DATE_AND_TIME ( #223, #138 ) ;
#26 = PERSON_AND_ORGANIZATION_ROLE ( 'design_owner' ) ;
#27 = DESIGN_CONTEXT ( 'detailed design', #263, 'design' ) ;
#28 = CARTESIAN_POINT ( 'NONE',  ( 6.633814543801952113E-14, -2.326828918379970970E-15, 19.00000000000000000 ) ) ;
#29 = EDGE_LOOP ( 'NONE', ( #169 ) ) ;
#30 = CYLINDRICAL_SURFACE ( 'NONE', #249, 4.000000000000000000 ) ;
#31 = CC_DESIGN_PERSON_AND_ORGANIZATION_ASSIGNMENT ( #71, #5, ( #75 ) ) ;
#32 = ORIENTED_EDGE ( 'NONE', *, *, #100, .T. ) ;
#33 = VERTEX_POINT ( 'NONE', #15 ) ;
#34 = EDGE_LOOP ( 'NONE', ( #32 ) ) ;
#35 = DIRECTION ( 'NONE',  ( -1.000000000000000000, 0.0000000000000000000, 3.491481338843133355E-15 ) ) ;
#36 = CARTESIAN_POINT ( 'NONE',  ( 9.077851480992146724E-14, 0.0000000000000000000, 26.00000000000000000 ) ) ;
#37 = APPROVAL_DATE_TIME ( #2, #114 ) ;
#38 = DATE_AND_TIME ( #131, #203 ) ;
#39 = CALENDAR_DATE ( 2021, 18, 11 ) ;
#40 = CYLINDRICAL_SURFACE ( 'NONE', #123, 3.700000000000000178 ) ;
#41 = AXIS2_PLACEMENT_3D ( 'NONE', #64, #68, #125 ) ;
#42 = AXIS2_PLACEMENT_3D ( 'NONE', #49, #188, #18 ) ;
#43 = AXIS2_PLACEMENT_3D ( 'NONE', #237, #250, #44 ) ;
#44 = DIRECTION ( 'NONE',  ( 0.0000000000000000000, 1.000000000000000000, 0.0000000000000000000 ) ) ;
#45 = VERTEX_POINT ( 'NONE', #82 ) ;
#46 = VERTEX_POINT ( 'NONE', #251 ) ;
#47 = CARTESIAN_POINT ( 'NONE',  ( 9.077851480992146724E-14, 4.999999999999995559, 26.00000000000000000 ) ) ;
#48 = EDGE_CURVE ( 'NONE', #124, #124, #197, .T. ) ;
#49 = CARTESIAN_POINT ( 'NONE',  ( 6.633814543801952113E-14, 0.0000000000000000000, 19.00000000000000000 ) ) ;
#50 = DIRECTION ( 'NONE',  ( -3.491481338843133355E-15, 0.0000000000000000000, -1.000000000000000000 ) ) ;
#51 = CALENDAR_DATE ( 2021, 18, 11 ) ;
#52 = APPLICATION_PROTOCOL_DEFINITION ( 'international standard', 'config_control_design', 1994, #17 ) ;
#53 = LOCAL_TIME ( 11, 46, 9.000000000000000000, #198 ) ;
#54 = FACE_OUTER_BOUND ( 'NONE', #34, .T. ) ;
#55 = PRODUCT_RELATED_PRODUCT_CATEGORY ( 'detail', '', ( #164 ) ) ;
#56 = APPROVAL_ROLE ( '' ) ;
#57 = PERSON_AND_ORGANIZATION ( #172, #83 ) ;
#58 = COORDINATED_UNIVERSAL_TIME_OFFSET ( 1, 0, .AHEAD. ) ;
#59 = CC_DESIGN_DATE_AND_TIME_ASSIGNMENT ( #38, #178, ( #121 ) ) ;
#60 = UNCERTAINTY_MEASURE_WITH_UNIT (LENGTH_MEASURE( 1.000000000000000082E-05 ), #211, 'distance_accuracy_value', 'NONE');
#61 = APPROVAL_DATE_TIME ( #25, #179 ) ;
#62 = ORIENTED_EDGE ( 'NONE', *, *, #65, .F. ) ;
#63 = DIRECTION ( 'NONE',  ( -3.491481338843133355E-15, 1.224646799147353207E-16, -1.000000000000000000 ) ) ;
#64 = CARTESIAN_POINT ( 'NONE',  ( 6.633814543801952113E-14, 2.999519565323711931E-32, 19.00000000000000000 ) ) ;
#65 = EDGE_CURVE ( 'NONE', #16, #16, #222, .T. ) ;
#66 = AXIS2_PLACEMENT_3D ( 'NONE', #47, #50, #35 ) ;
#67 = DIRECTION ( 'NONE',  ( -3.491481338843133355E-15, 1.224646799147353207E-16, -1.000000000000000000 ) ) ;
#68 = DIRECTION ( 'NONE',  ( 3.491481338843133355E-15, -1.224646799147353207E-16, 1.000000000000000000 ) ) ;
#69 = CC_DESIGN_APPROVAL ( #179, ( #75 ) ) ;
#70 = PRODUCT_DEFINITION_SHAPE ( 'NONE', 'NONE',  #121 ) ;
#71 = PERSON_AND_ORGANIZATION ( #172, #83 ) ;
#72 = COORDINATED_UNIVERSAL_TIME_OFFSET ( 1, 0, .AHEAD. ) ;
#73 = ADVANCED_FACE ( 'NONE', ( #148, #13 ), #259, .T. ) ;
#74 = DATE_AND_TIME ( #39, #228 ) ;
#75 = SECURITY_CLASSIFICATION ( '', '', #92 ) ;
#76 = CIRCLE ( 'NONE', #155, 3.999999999999997335 ) ;
#77 = ADVANCED_FACE ( 'NONE', ( #215, #105 ), #99, .T. ) ;
#78 = ORIENTED_EDGE ( 'NONE', *, *, #107, .F. ) ;
#79 = APPROVAL_PERSON_ORGANIZATION ( #243, #179, #56 ) ;
#80 = DIRECTION ( 'NONE',  ( -3.491481338843133355E-15, 1.224646799147353207E-16, -1.000000000000000000 ) ) ;
#81 = DIRECTION ( 'NONE',  ( 3.491481338843133355E-15, -0.0000000000000000000, 1.000000000000000000 ) ) ;
#82 = CARTESIAN_POINT ( 'NONE',  ( 2.199633243471174140E-13, 3.199999999999990852, 63.00000000000000000 ) ) ;
#83 = ORGANIZATION ( 'UNSPECIFIED', 'UNSPECIFIED', '' ) ;
#84 = ADVANCED_FACE ( 'NONE', ( #142 ), #232, .F. ) ;
#85 = CARTESIAN_POINT ( 'NONE',  ( -3.785471652766322976E-30, 0.0000000000000000000, -1.084202172485504434E-15 ) ) ;
#86 = CARTESIAN_POINT ( 'NONE',  ( 3.700000000000090772, 0.0000000000000000000, 25.99999999999998579 ) ) ;
#87 = APPROVAL_PERSON_ORGANIZATION ( #175, #114, #132 ) ;
#88 = FACE_OUTER_BOUND ( 'NONE', #145, .T. ) ;
#89 = DIRECTION ( 'NONE',  ( 1.000000000000000000, 0.0000000000000000000, 0.0000000000000000000 ) ) ;
#90 = AXIS2_PLACEMENT_3D ( 'NONE', #162, #235, #165 ) ;
#91 = MANIFOLD_SOLID_BREP ( 'Corps-Déplacer/Copier1[2]', #20 ) ;
#92 = SECURITY_CLASSIFICATION_LEVEL ( 'unclassified' ) ;
#93 = PERSON_AND_ORGANIZATION_ROLE ( 'creator' ) ;
#94 = APPROVAL_STATUS ( 'not_yet_approved' ) ;
#95 = AXIS2_PLACEMENT_3D ( 'NONE', #36, #214, #106 ) ;
#96 = ORIENTED_EDGE ( 'NONE', *, *, #65, .T. ) ;
#97 = ADVANCED_FACE ( 'NONE', ( #256, #193 ), #171, .T. ) ;
#98 = CIRCLE ( 'NONE', #246, 3.199999999999998845 ) ;
#99 = CYLINDRICAL_SURFACE ( 'NONE', #90, 3.999999999999998224 ) ;
#100 = EDGE_CURVE ( 'NONE', #33, #33, #3, .T. ) ;
#101 = CARTESIAN_POINT ( 'NONE',  ( -3.999999999999907185, -3.184081677783118191E-15, 26.00000000000001421 ) ) ;
#102 = FACE_OUTER_BOUND ( 'NONE', #137, .T. ) ;
#103 = AXIS2_PLACEMENT_3D ( 'NONE', #113, #156, #89 ) ;
#104 = ADVANCED_FACE ( 'NONE', ( #217 ), #130, .F. ) ;
#105 = FACE_OUTER_BOUND ( 'NONE', #159, .T. ) ;
#106 = DIRECTION ( 'NONE',  ( 1.000000000000000000, 0.0000000000000000000, -3.750753461571474649E-15 ) ) ;
#107 = EDGE_CURVE ( 'NONE', #45, #45, #98, .T. ) ;
#108 = CC_DESIGN_PERSON_AND_ORGANIZATION_ASSIGNMENT ( #242, #93, ( #121 ) ) ;
#109 = PERSON_AND_ORGANIZATION_ROLE ( 'creator' ) ;
#110 = EDGE_CURVE ( 'NONE', #189, #189, #191, .T. ) ;
#111 = APPROVAL_STATUS ( 'not_yet_approved' ) ;
#112 = TOROIDAL_SURFACE ( 'NONE', #257, 3.000000000000000000, 1.000000000000000000 ) ;
#113 = CARTESIAN_POINT ( 'NONE',  ( 0.0000000000000000000, 0.0000000000000000000, 0.0000000000000000000 ) ) ;
#114 = APPROVAL ( #111, 'UNSPECIFIED' ) ;
#115 = COORDINATED_UNIVERSAL_TIME_OFFSET ( 1, 0, .AHEAD. ) ;
#116 = CC_DESIGN_APPROVAL ( #161, ( #121 ) ) ;
#117 = EDGE_LOOP ( 'NONE', ( #225 ) ) ;
#118 = EDGE_LOOP ( 'NONE', ( #180 ) ) ;
#119 = CARTESIAN_POINT ( 'NONE',  ( 3.491481338843129805E-15, 0.0000000000000000000, 0.9999999999999988898 ) ) ;
#120 = EDGE_LOOP ( 'NONE', ( #136 ) ) ;
#121 = PRODUCT_DEFINITION ( 'UNKNOWN', '', #150, #27 ) ;
#122 = ORIENTED_EDGE ( 'NONE', *, *, #100, .F. ) ;
#123 = AXIS2_PLACEMENT_3D ( 'NONE', #176, #134, #224 ) ;
#124 = VERTEX_POINT ( 'NONE', #139 ) ;
#125 = DIRECTION ( 'NONE',  ( -4.275831445896958607E-31, -1.000000000000000000, -1.224646799147353207E-16 ) ) ;
#126 = CARTESIAN_POINT ( 'NONE',  ( 4.000000000000003553, 0.0000000000000000000, 0.9999999999999850120 ) ) ;
#127 = EDGE_LOOP ( 'NONE', ( #146 ) ) ;
#128 = AXIS2_PLACEMENT_3D ( 'NONE', #255, #163, #206 ) ;
#129 = ADVANCED_FACE ( 'NONE', ( #170 ), #260, .T. ) ;
#130 = PLANE ( 'NONE',  #41 ) ;
#131 = CALENDAR_DATE ( 2021, 18, 11 ) ;
#132 = APPROVAL_ROLE ( '' ) ;
#133 = MECHANICAL_CONTEXT ( 'NONE', #17, 'mechanical' ) ;
#134 = DIRECTION ( 'NONE',  ( 3.491481338843133355E-15, -0.0000000000000000000, 1.000000000000000000 ) ) ;
#135 = LOCAL_TIME ( 11, 46, 9.000000000000000000, #58 ) ;
#136 = ORIENTED_EDGE ( 'NONE', *, *, #8, .F. ) ;
#137 = EDGE_LOOP ( 'NONE', ( #96 ) ) ;
#138 = LOCAL_TIME ( 11, 46, 9.000000000000000000, #72 ) ;
#139 = CARTESIAN_POINT ( 'NONE',  ( 3.000000000000000000, 0.0000000000000000000, -1.155864618901490450E-14 ) ) ;
#140 = DIRECTION ( 'NONE',  ( 0.0000000000000000000, 1.000000000000000000, 0.0000000000000000000 ) ) ;
#141 = FACE_OUTER_BOUND ( 'NONE', #227, .T. ) ;
#142 = FACE_OUTER_BOUND ( 'NONE', #11, .T. ) ;
#143 = VERTEX_POINT ( 'NONE', #234 ) ;
#144 = DIRECTION ( 'NONE',  ( -3.491481338843133355E-15, 1.224646799147353207E-16, -1.000000000000000000 ) ) ;
#145 = EDGE_LOOP ( 'NONE', ( #157 ) ) ;
#146 = ORIENTED_EDGE ( 'NONE', *, *, #48, .F. ) ;
#147 = VERTEX_POINT ( 'NONE', #101 ) ;
#148 = FACE_BOUND ( 'NONE', #207, .T. ) ;
#149 = CARTESIAN_POINT ( 'NONE',  ( 6.633814543801952113E-14, 2.999519565323711931E-32, 19.00000000000000000 ) ) ;
#150 = PRODUCT_DEFINITION_FORMATION_WITH_SPECIFIED_SOURCE ( 'ANY', '', #164, .NOT_KNOWN. ) ;
#151 = ADVANCED_FACE ( 'NONE', ( #54, #88 ), #40, .T. ) ;
#152 = FACE_OUTER_BOUND ( 'NONE', #236, .T. ) ;
#153 = DATE_TIME_ROLE ( 'classification_date' ) ;
#154 = CC_DESIGN_APPROVAL ( #114, ( #150 ) ) ;
#155 = AXIS2_PLACEMENT_3D ( 'NONE', #254, #67, #140 ) ;
#156 = DIRECTION ( 'NONE',  ( 0.0000000000000000000, 0.0000000000000000000, 1.000000000000000000 ) ) ;
#157 = ORIENTED_EDGE ( 'NONE', *, *, #110, .F. ) ;
#158 = CLOSED_SHELL ( 'NONE', ( #77, #73, #84, #151, #97, #104 ) ) ;
#159 = EDGE_LOOP ( 'NONE', ( #9 ) ) ;
#160 = DIRECTION ( 'NONE',  ( -1.000000000000000000, 0.0000000000000000000, 3.469446951953615767E-15 ) ) ;
#161 = APPROVAL ( #94, 'UNSPECIFIED' ) ;
#162 = CARTESIAN_POINT ( 'NONE',  ( 0.0000000000000000000, 0.0000000000000000000, 0.0000000000000000000 ) ) ;
#163 = DIRECTION ( 'NONE',  ( -3.491481338843133355E-15, 1.224646799147353207E-16, -1.000000000000000000 ) ) ;
#164 = PRODUCT ( '339048', '339048', '', ( #133 ) ) ;
#165 = DIRECTION ( 'NONE',  ( 4.275831445896958607E-31, 1.000000000000000000, 1.224646799147353207E-16 ) ) ;
#166 = CARTESIAN_POINT ( 'NONE',  ( 0.0000000000000000000, 0.0000000000000000000, 0.0000000000000000000 ) ) ;
#167 = DIRECTION ( 'NONE',  ( 1.000000000000000000, 0.0000000000000000000, -3.469446951953614189E-15 ) ) ;
#168 = CC_DESIGN_DATE_AND_TIME_ASSIGNMENT ( #74, #153, ( #75 ) ) ;
#169 = ORIENTED_EDGE ( 'NONE', *, *, #241, .F. ) ;
#170 = FACE_OUTER_BOUND ( 'NONE', #29, .T. ) ;
#171 = PLANE ( 'NONE',  #66 ) ;
#172 = PERSON ( 'UNSPECIFIED', 'UNSPECIFIED', 'UNSPECIFIED', ('UNSPECIFIED'), ('UNSPECIFIED'), ('UNSPECIFIED') ) ;
#173 = AXIS2_PLACEMENT_3D ( 'NONE', #28, #63, #183 ) ;
#174 = COORDINATED_UNIVERSAL_TIME_OFFSET ( 1, 0, .AHEAD. ) ;
#175 = PERSON_AND_ORGANIZATION ( #172, #83 ) ;
#176 = CARTESIAN_POINT ( 'NONE',  ( -1.282749433769087757E-30, 0.0000000000000000000, -3.673940397442059868E-16 ) ) ;
#177 = ORIENTED_EDGE ( 'NONE', *, *, #110, .T. ) ;
#178 = DATE_TIME_ROLE ( 'creation_date' ) ;
#179 = APPROVAL ( #1, 'UNSPECIFIED' ) ;
#180 = ORIENTED_EDGE ( 'NONE', *, *, #48, .T. ) ;
#181 = AXIS2_PLACEMENT_3D ( 'NONE', #85, #185, #212 ) ;
#182 = CARTESIAN_POINT ( 'NONE',  ( 2.199633243471174140E-13, 2.399615652258959583E-32, 63.00000000000000000 ) ) ;
#183 = DIRECTION ( 'NONE',  ( 0.0000000000000000000, 1.000000000000000000, 0.0000000000000000000 ) ) ;
#184 =( NAMED_UNIT ( * ) SI_UNIT ( $, .STERADIAN. ) SOLID_ANGLE_UNIT ( ) );
#185 = DIRECTION ( 'NONE',  ( 3.491481338843133355E-15, -0.0000000000000000000, 1.000000000000000000 ) ) ;
#186 = AXIS2_PLACEMENT_3D ( 'NONE', #7, #81, #160 ) ;
#187 = DIRECTION ( 'NONE',  ( 4.275831445896958607E-31, 1.000000000000000000, 1.224646799147353207E-16 ) ) ;
#188 = DIRECTION ( 'NONE',  ( 3.491481338843133355E-15, -0.0000000000000000000, 1.000000000000000000 ) ) ;
#189 = VERTEX_POINT ( 'NONE', #86 ) ;
#190 = ORIENTED_EDGE ( 'NONE', *, *, #107, .T. ) ;
#191 = CIRCLE ( 'NONE', #95, 3.700000000000000178 ) ;
#192 = AXIS2_PLACEMENT_3D ( 'NONE', #182, #80, #187 ) ;
#193 = FACE_BOUND ( 'NONE', #201, .T. ) ;
#194 = CARTESIAN_POINT ( 'NONE',  ( 2.199633243471174140E-13, -7.715274834628325378E-15, 63.00000000000000000 ) ) ;
#195 = PERSON_AND_ORGANIZATION_ROLE ( 'design_supplier' ) ;
#196 = CC_DESIGN_SECURITY_CLASSIFICATION ( #75, ( #150 ) ) ;
#197 = CIRCLE ( 'NONE', #181, 3.000000000000000000 ) ;
#198 = COORDINATED_UNIVERSAL_TIME_OFFSET ( 1, 0, .AHEAD. ) ;
#199 = DIRECTION ( 'NONE',  ( 1.000000000000000000, 0.0000000000000000000, -3.491481338843133355E-15 ) ) ;
#200 =( GEOMETRIC_REPRESENTATION_CONTEXT ( 3 ) GLOBAL_UNCERTAINTY_ASSIGNED_CONTEXT ( ( #60 ) ) GLOBAL_UNIT_ASSIGNED_CONTEXT ( ( #211, #230, #184 ) ) REPRESENTATION_CONTEXT ( 'NONE', 'WORKASPACE' ) );
#201 = EDGE_LOOP ( 'NONE', ( #177 ) ) ;
#202 = ADVANCED_FACE ( 'NONE', ( #261, #152 ), #112, .T. ) ;
#203 = LOCAL_TIME ( 11, 46, 9.000000000000000000, #115 ) ;
#204 = EDGE_CURVE ( 'NONE', #147, #147, #210, .T. ) ;
#205 = ORIENTED_EDGE ( 'NONE', *, *, #241, .T. ) ;
#206 = DIRECTION ( 'NONE',  ( 4.275831445896958607E-31, 1.000000000000000000, 1.224646799147353207E-16 ) ) ;
#207 = EDGE_LOOP ( 'NONE', ( #190 ) ) ;
#208 = EDGE_LOOP ( 'NONE', ( #229 ) ) ;
#209 = FACE_OUTER_BOUND ( 'NONE', #127, .T. ) ;
#210 = CIRCLE ( 'NONE', #186, 3.999999999999998224 ) ;
#211 =( LENGTH_UNIT ( ) NAMED_UNIT ( * ) SI_UNIT ( .MILLI., .METRE. ) );
#212 = DIRECTION ( 'NONE',  ( 1.000000000000000000, 0.0000000000000000000, -3.491481338843133355E-15 ) ) ;
#213 = DIRECTION ( 'NONE',  ( 0.0000000000000000000, 1.000000000000000000, 0.0000000000000000000 ) ) ;
#214 = DIRECTION ( 'NONE',  ( 3.491481338843133355E-15, -0.0000000000000000000, 1.000000000000000000 ) ) ;
#215 = FACE_OUTER_BOUND ( 'NONE', #208, .T. ) ;
#216 = ADVANCED_FACE ( 'NONE', ( #102, #141 ), #30, .T. ) ;
#217 = FACE_OUTER_BOUND ( 'NONE', #245, .T. ) ;
#218 = DIRECTION ( 'NONE',  ( 3.491481338843133355E-15, -0.0000000000000000000, 1.000000000000000000 ) ) ;
#219 = CALENDAR_DATE ( 2021, 18, 11 ) ;
#220 = CC_DESIGN_PERSON_AND_ORGANIZATION_ASSIGNMENT ( #262, #109, ( #150 ) ) ;
#221 = DATE_AND_TIME ( #51, #53 ) ;
#222 = CIRCLE ( 'NONE', #6, 4.000000000000000000 ) ;
#223 = CALENDAR_DATE ( 2021, 18, 11 ) ;
#224 = DIRECTION ( 'NONE',  ( 1.000000000000000000, 0.0000000000000000000, -3.491481338843133355E-15 ) ) ;
#225 = ORIENTED_EDGE ( 'NONE', *, *, #204, .F. ) ;
#226 = AXIS2_PLACEMENT_3D ( 'NONE', #149, #238, #4 ) ;
#227 = EDGE_LOOP ( 'NONE', ( #205 ) ) ;
#228 = LOCAL_TIME ( 11, 46, 9.000000000000000000, #174 ) ;
#229 = ORIENTED_EDGE ( 'NONE', *, *, #8, .T. ) ;
#230 =( NAMED_UNIT ( * ) PLANE_ANGLE_UNIT ( ) SI_UNIT ( $, .RADIAN. ) );
#231 = CARTESIAN_POINT ( 'NONE',  ( 3.491481338843129805E-15, 0.0000000000000000000, 0.9999999999999988898 ) ) ;
#232 = PLANE ( 'NONE',  #192 ) ;
#233 = CC_DESIGN_PERSON_AND_ORGANIZATION_ASSIGNMENT ( #21, #195, ( #150 ) ) ;
#234 = CARTESIAN_POINT ( 'NONE',  ( 2.171701392760429073E-13, 3.999999999999989786, 62.20000000000000284 ) ) ;
#235 = DIRECTION ( 'NONE',  ( -3.491481338843133355E-15, 1.224646799147353207E-16, -1.000000000000000000 ) ) ;
#236 = EDGE_LOOP ( 'NONE', ( #62 ) ) ;
#237 = CARTESIAN_POINT ( 'NONE',  ( 2.171701392760429073E-13, -7.617303090696536944E-15, 62.20000000000000284 ) ) ;
#238 = DIRECTION ( 'NONE',  ( 3.491481338843133355E-15, -1.224646799147353207E-16, 1.000000000000000000 ) ) ;
#239 = APPROVAL_PERSON_ORGANIZATION ( #57, #161, #23 ) ;
#240 = APPLICATION_PROTOCOL_DEFINITION ( 'international standard', 'config_control_design', 1994, #263 ) ;
#241 = EDGE_CURVE ( 'NONE', #46, #46, #22, .T. ) ;
#242 = PERSON_AND_ORGANIZATION ( #172, #83 ) ;
#243 = PERSON_AND_ORGANIZATION ( #172, #83 ) ;
#244 = PERSON_AND_ORGANIZATION ( #172, #83 ) ;
#245 = EDGE_LOOP ( 'NONE', ( #122 ) ) ;
#246 = AXIS2_PLACEMENT_3D ( 'NONE', #194, #144, #213 ) ;
#247 = CC_DESIGN_PERSON_AND_ORGANIZATION_ASSIGNMENT ( #244, #26, ( #164 ) ) ;
#248 = DIRECTION ( 'NONE',  ( -3.491481338843133355E-15, 1.224646799147353207E-16, -1.000000000000000000 ) ) ;
#249 = AXIS2_PLACEMENT_3D ( 'NONE', #166, #248, #14 ) ;
#250 = DIRECTION ( 'NONE',  ( -3.491481338843133355E-15, 1.224646799147353207E-16, -1.000000000000000000 ) ) ;
#251 = CARTESIAN_POINT ( 'NONE',  ( 6.633814543801952113E-14, 3.999999999999997335, 19.00000000000000000 ) ) ;
#252 = ADVANCED_BREP_SHAPE_REPRESENTATION ( '339048', ( #19, #91, #103 ), #200 ) ;
#253 = ADVANCED_FACE ( 'NONE', ( #209 ), #12, .T. ) ;
#254 = CARTESIAN_POINT ( 'NONE',  ( 2.171701392760429073E-13, -7.617303090696536944E-15, 62.20000000000000284 ) ) ;
#255 = CARTESIAN_POINT ( 'NONE',  ( -8.551662891793915461E-31, 2.999519565323715216E-32, -2.449293598294706414E-16 ) ) ;
#256 = FACE_OUTER_BOUND ( 'NONE', #117, .T. ) ;
#257 = AXIS2_PLACEMENT_3D ( 'NONE', #119, #218, #199 ) ;
#258 = DIRECTION ( 'NONE',  ( 3.491481338843133355E-15, -0.0000000000000000000, 1.000000000000000000 ) ) ;
#259 = CONICAL_SURFACE ( 'NONE', #43, 3.999999999999997335, 0.7853981633974504994 ) ;
#260 = PLANE ( 'NONE',  #226 ) ;
#261 = FACE_OUTER_BOUND ( 'NONE', #118, .T. ) ;
#262 = PERSON_AND_ORGANIZATION ( #172, #83 ) ;
#263 = APPLICATION_CONTEXT ( 'configuration controlled 3d designs of mechanical parts and assemblies' ) ;
ENDSEC;
END-ISO-10303-21;
