ISO-10303-21;
HEADER;
FILE_DESCRIPTION (( 'STEP AP203' ),
    '1' );
FILE_NAME ('339047.step',
    '2021-11-18T10:46:08',
    ( '' ),
    ( '' ),
    'SwSTEP 2.0',
    'SolidWorks 2019',
    '' );
FILE_SCHEMA (( 'CONFIG_CONTROL_DESIGN' ));
ENDSEC;

DATA;
#1 = EDGE_LOOP ( 'NONE', ( #39 ) ) ;
#2 = ORIENTED_EDGE ( 'NONE', *, *, #177, .F. ) ;
#3 = PERSON_AND_ORGANIZATION_ROLE ( 'creator' ) ;
#4 = DIRECTION ( 'NONE',  ( 0.0000000000000000000, 1.000000000000000000, 0.0000000000000000000 ) ) ;
#5 =( GEOMETRIC_REPRESENTATION_CONTEXT ( 3 ) GLOBAL_UNCERTAINTY_ASSIGNED_CONTEXT ( ( #24 ) ) GLOBAL_UNIT_ASSIGNED_CONTEXT ( ( #193, #14, #43 ) ) REPRESENTATION_CONTEXT ( 'NONE', 'WORKASPACE' ) );
#6 = PERSON_AND_ORGANIZATION ( #169, #245 ) ;
#7 = EDGE_LOOP ( 'NONE', ( #10 ) ) ;
#8 = EDGE_LOOP ( 'NONE', ( #146 ) ) ;
#9 = APPROVAL_STATUS ( 'not_yet_approved' ) ;
#10 = ORIENTED_EDGE ( 'NONE', *, *, #23, .F. ) ;
#11 = ORIENTED_EDGE ( 'NONE', *, *, #249, .F. ) ;
#12 = CC_DESIGN_SECURITY_CLASSIFICATION ( #262, ( #201 ) ) ;
#13 = EDGE_LOOP ( 'NONE', ( #61 ) ) ;
#14 =( NAMED_UNIT ( * ) PLANE_ANGLE_UNIT ( ) SI_UNIT ( $, .RADIAN. ) );
#15 = CARTESIAN_POINT ( 'NONE',  ( 6.633814543801952113E-14, -2.326828918379970970E-15, 19.00000000000000000 ) ) ;
#16 = CIRCLE ( 'NONE', #67, 3.700000000000000178 ) ;
#17 = CC_DESIGN_PERSON_AND_ORGANIZATION_ASSIGNMENT ( #160, #68, ( #201 ) ) ;
#18 = VERTEX_POINT ( 'NONE', #258 ) ;
#19 = DIRECTION ( 'NONE',  ( 4.275831445896958607E-31, 1.000000000000000000, 1.224646799147353207E-16 ) ) ;
#20 = AXIS2_PLACEMENT_3D ( 'NONE', #223, #200, #19 ) ;
#21 = FACE_OUTER_BOUND ( 'NONE', #13, .T. ) ;
#22 = DIRECTION ( 'NONE',  ( 3.491481338843133355E-15, -0.0000000000000000000, 1.000000000000000000 ) ) ;
#23 = EDGE_CURVE ( 'NONE', #117, #117, #222, .T. ) ;
#24 = UNCERTAINTY_MEASURE_WITH_UNIT (LENGTH_MEASURE( 1.000000000000000082E-05 ), #193, 'distance_accuracy_value', 'NONE');
#25 = FACE_OUTER_BOUND ( 'NONE', #1, .T. ) ;
#26 = DIRECTION ( 'NONE',  ( 1.000000000000000000, 0.0000000000000000000, -3.491481338843133355E-15 ) ) ;
#27 = CARTESIAN_POINT ( 'NONE',  ( 6.633814543801952113E-14, 2.999519565323711931E-32, 19.00000000000000000 ) ) ;
#28 = EDGE_LOOP ( 'NONE', ( #75 ) ) ;
#29 = CALENDAR_DATE ( 2021, 18, 11 ) ;
#30 = FACE_OUTER_BOUND ( 'NONE', #69, .T. ) ;
#31 = MECHANICAL_CONTEXT ( 'NONE', #155, 'mechanical' ) ;
#32 = CYLINDRICAL_SURFACE ( 'NONE', #44, 3.700000000000000178 ) ;
#33 = DIRECTION ( 'NONE',  ( -4.275831445896958607E-31, -1.000000000000000000, -1.224646799147353207E-16 ) ) ;
#34 = EDGE_CURVE ( 'NONE', #18, #18, #257, .T. ) ;
#35 = CONICAL_SURFACE ( 'NONE', #229, 3.999999999999997335, 0.7853981633974504994 ) ;
#36 = CALENDAR_DATE ( 2021, 18, 11 ) ;
#37 = CARTESIAN_POINT ( 'NONE',  ( 2.199633243471174140E-13, -7.715274834628325378E-15, 63.00000000000000000 ) ) ;
#38 = ADVANCED_FACE ( 'NONE', ( #21, #153 ), #176, .T. ) ;
#39 = ORIENTED_EDGE ( 'NONE', *, *, #34, .T. ) ;
#40 = CARTESIAN_POINT ( 'NONE',  ( 0.0000000000000000000, 0.0000000000000000000, 0.0000000000000000000 ) ) ;
#41 = EDGE_CURVE ( 'NONE', #134, #134, #53, .T. ) ;
#42 = DIRECTION ( 'NONE',  ( 4.275831445896958607E-31, 1.000000000000000000, 1.224646799147353207E-16 ) ) ;
#43 =( NAMED_UNIT ( * ) SI_UNIT ( $, .STERADIAN. ) SOLID_ANGLE_UNIT ( ) );
#44 = AXIS2_PLACEMENT_3D ( 'NONE', #180, #137, #246 ) ;
#45 = ADVANCED_FACE ( 'NONE', ( #256, #238 ), #48, .T. ) ;
#46 = APPROVAL_PERSON_ORGANIZATION ( #189, #86, #150 ) ;
#47 = CC_DESIGN_DATE_AND_TIME_ASSIGNMENT ( #247, #168, ( #174 ) ) ;
#48 = TOROIDAL_SURFACE ( 'NONE', #71, 3.500000000000000000, 0.5000000000000000000 ) ;
#49 = APPROVAL_STATUS ( 'not_yet_approved' ) ;
#50 = EDGE_LOOP ( 'NONE', ( #252 ) ) ;
#51 = DIRECTION ( 'NONE',  ( 4.275831445896958607E-31, 1.000000000000000000, 1.224646799147353207E-16 ) ) ;
#52 = CARTESIAN_POINT ( 'NONE',  ( -3.785471652766322976E-30, 0.0000000000000000000, -1.084202172485504434E-15 ) ) ;
#53 = CIRCLE ( 'NONE', #143, 4.000000000000000000 ) ;
#54 = AXIS2_PLACEMENT_3D ( 'NONE', #37, #151, #113 ) ;
#55 = ORIENTED_EDGE ( 'NONE', *, *, #23, .T. ) ;
#56 = CC_DESIGN_PERSON_AND_ORGANIZATION_ASSIGNMENT ( #196, #233, ( #174 ) ) ;
#57 = SECURITY_CLASSIFICATION_LEVEL ( 'unclassified' ) ;
#58 = DIRECTION ( 'NONE',  ( 4.275831445896958607E-31, 1.000000000000000000, 1.224646799147353207E-16 ) ) ;
#59 = PERSON_AND_ORGANIZATION_ROLE ( 'design_owner' ) ;
#60 = APPROVAL_STATUS ( 'not_yet_approved' ) ;
#61 = ORIENTED_EDGE ( 'NONE', *, *, #177, .T. ) ;
#62 = VERTEX_POINT ( 'NONE', #195 ) ;
#63 = ORIENTED_EDGE ( 'NONE', *, *, #209, .T. ) ;
#64 = CARTESIAN_POINT ( 'NONE',  ( 3.700000000000066347, 0.0000000000000000000, 18.99999999999998579 ) ) ;
#65 = LOCAL_TIME ( 11, 46, 8.000000000000000000, #90 ) ;
#66 = DIRECTION ( 'NONE',  ( 3.491481338843133355E-15, -0.0000000000000000000, 1.000000000000000000 ) ) ;
#67 = AXIS2_PLACEMENT_3D ( 'NONE', #239, #66, #132 ) ;
#68 = PERSON_AND_ORGANIZATION_ROLE ( 'design_supplier' ) ;
#69 = EDGE_LOOP ( 'NONE', ( #141 ) ) ;
#70 = DIRECTION ( 'NONE',  ( -3.491481338843133355E-15, 1.224646799147353207E-16, -1.000000000000000000 ) ) ;
#71 = AXIS2_PLACEMENT_3D ( 'NONE', #172, #22, #154 ) ;
#72 = CARTESIAN_POINT ( 'NONE',  ( 0.0000000000000000000, 0.0000000000000000000, 0.0000000000000000000 ) ) ;
#73 = ADVANCED_FACE ( 'NONE', ( #235 ), #133, .T. ) ;
#74 = APPROVAL_PERSON_ORGANIZATION ( #96, #184, #105 ) ;
#75 = ORIENTED_EDGE ( 'NONE', *, *, #152, .F. ) ;
#76 = ORIENTED_EDGE ( 'NONE', *, *, #244, .F. ) ;
#77 = DIRECTION ( 'NONE',  ( 1.000000000000000000, 0.0000000000000000000, -3.496552006265751800E-15 ) ) ;
#78 = PRODUCT ( '339047', '339047', '', ( #31 ) ) ;
#79 = AXIS2_PLACEMENT_3D ( 'NONE', #158, #70, #58 ) ;
#80 = DIRECTION ( 'NONE',  ( 1.000000000000000000, 0.0000000000000000000, -3.750753461571474649E-15 ) ) ;
#81 = CIRCLE ( 'NONE', #224, 3.999999999999997335 ) ;
#82 = EDGE_LOOP ( 'NONE', ( #63 ) ) ;
#83 = CARTESIAN_POINT ( 'NONE',  ( 3.500000000000000000, 0.0000000000000000000, -1.330438685843647118E-14 ) ) ;
#84 = PERSON_AND_ORGANIZATION_ROLE ( 'classification_officer' ) ;
#85 = CC_DESIGN_APPROVAL ( #237, ( #201 ) ) ;
#86 = APPROVAL ( #9, 'UNSPECIFIED' ) ;
#87 = FACE_OUTER_BOUND ( 'NONE', #230, .T. ) ;
#88 = VERTEX_POINT ( 'NONE', #64 ) ;
#89 = LOCAL_TIME ( 11, 46, 8.000000000000000000, #162 ) ;
#90 = COORDINATED_UNIVERSAL_TIME_OFFSET ( 1, 0, .AHEAD. ) ;
#91 = EDGE_LOOP ( 'NONE', ( #183 ) ) ;
#92 = ADVANCED_FACE ( 'NONE', ( #104 ), #192, .T. ) ;
#93 = AXIS2_PLACEMENT_3D ( 'NONE', #211, #194, #220 ) ;
#94 = CARTESIAN_POINT ( 'NONE',  ( 6.633814543801952113E-14, 0.0000000000000000000, 19.00000000000000000 ) ) ;
#95 = APPLICATION_CONTEXT ( 'configuration controlled 3d designs of mechanical parts and assemblies' ) ;
#96 = PERSON_AND_ORGANIZATION ( #169, #245 ) ;
#97 = CARTESIAN_POINT ( 'NONE',  ( 0.0000000000000000000, 0.0000000000000000000, 0.0000000000000000000 ) ) ;
#98 = DATE_AND_TIME ( #206, #205 ) ;
#99 = FACE_OUTER_BOUND ( 'NONE', #7, .T. ) ;
#100 = VERTEX_POINT ( 'NONE', #83 ) ;
#101 = CARTESIAN_POINT ( 'NONE',  ( 9.077851480992146724E-14, -3.184081677783118191E-15, 26.00000000000000000 ) ) ;
#102 = AXIS2_PLACEMENT_3D ( 'NONE', #15, #254, #175 ) ;
#103 = MANIFOLD_SOLID_BREP ( 'Corps-Déplacer/Copier1[2]', #111 ) ;
#104 = FACE_OUTER_BOUND ( 'NONE', #28, .T. ) ;
#105 = APPROVAL_ROLE ( '' ) ;
#106 = FACE_BOUND ( 'NONE', #248, .T. ) ;
#107 = PERSON_AND_ORGANIZATION ( #169, #245 ) ;
#108 = AXIS2_PLACEMENT_3D ( 'NONE', #27, #124, #208 ) ;
#109 = MANIFOLD_SOLID_BREP ( 'Corps-Déplacer/Copier1[1]', #171 ) ;
#110 = ADVANCED_FACE ( 'NONE', ( #221, #259 ), #35, .T. ) ;
#111 = CLOSED_SHELL ( 'NONE', ( #114, #73, #45, #92 ) ) ;
#112 = APPROVAL_DATE_TIME ( #236, #86 ) ;
#113 = DIRECTION ( 'NONE',  ( 0.0000000000000000000, 1.000000000000000000, 0.0000000000000000000 ) ) ;
#114 = ADVANCED_FACE ( 'NONE', ( #204, #25 ), #159, .T. ) ;
#115 = CC_DESIGN_DATE_AND_TIME_ASSIGNMENT ( #203, #261, ( #262 ) ) ;
#116 = APPROVAL_PERSON_ORGANIZATION ( #6, #237, #219 ) ;
#117 = VERTEX_POINT ( 'NONE', #199 ) ;
#118 = CIRCLE ( 'NONE', #147, 3.700000000000000178 ) ;
#119 = CC_DESIGN_PERSON_AND_ORGANIZATION_ASSIGNMENT ( #107, #59, ( #78 ) ) ;
#120 = DIRECTION ( 'NONE',  ( 3.491481338843133355E-15, -0.0000000000000000000, 1.000000000000000000 ) ) ;
#121 = FACE_OUTER_BOUND ( 'NONE', #148, .T. ) ;
#122 = CC_DESIGN_APPROVAL ( #184, ( #262 ) ) ;
#123 = DIRECTION ( 'NONE',  ( 3.491481338843133355E-15, -0.0000000000000000000, 1.000000000000000000 ) ) ;
#124 = DIRECTION ( 'NONE',  ( 3.491481338843133355E-15, -1.224646799147353207E-16, 1.000000000000000000 ) ) ;
#125 = DIRECTION ( 'NONE',  ( 0.0000000000000000000, 0.0000000000000000000, 1.000000000000000000 ) ) ;
#126 = AXIS2_PLACEMENT_3D ( 'NONE', #198, #225, #33 ) ;
#127 = VERTEX_POINT ( 'NONE', #129 ) ;
#128 = CC_DESIGN_PERSON_AND_ORGANIZATION_ASSIGNMENT ( #202, #3, ( #201 ) ) ;
#129 = CARTESIAN_POINT ( 'NONE',  ( 3.700000000000090772, 0.0000000000000000000, 25.99999999999998579 ) ) ;
#130 = CARTESIAN_POINT ( 'NONE',  ( -3.999999999999907185, -3.184081677783118191E-15, 26.00000000000001421 ) ) ;
#131 = APPLICATION_PROTOCOL_DEFINITION ( 'international standard', 'config_control_design', 1994, #155 ) ;
#132 = DIRECTION ( 'NONE',  ( 1.000000000000000000, 0.0000000000000000000, -3.750753461571474649E-15 ) ) ;
#133 = PLANE ( 'NONE',  #126 ) ;
#134 = VERTEX_POINT ( 'NONE', #156 ) ;
#135 = CIRCLE ( 'NONE', #215, 3.999999999999998224 ) ;
#136 = CALENDAR_DATE ( 2021, 18, 11 ) ;
#137 = DIRECTION ( 'NONE',  ( 3.491481338843133355E-15, -0.0000000000000000000, 1.000000000000000000 ) ) ;
#138 = ADVANCED_FACE ( 'NONE', ( #185, #87 ), #32, .T. ) ;
#139 = EDGE_LOOP ( 'NONE', ( #2 ) ) ;
#140 = PLANE ( 'NONE',  #79 ) ;
#141 = ORIENTED_EDGE ( 'NONE', *, *, #209, .F. ) ;
#142 = CARTESIAN_POINT ( 'NONE',  ( 2.171701392760429073E-13, -7.617303090696536944E-15, 62.20000000000000284 ) ) ;
#143 = AXIS2_PLACEMENT_3D ( 'NONE', #167, #253, #77 ) ;
#144 = EDGE_LOOP ( 'NONE', ( #228 ) ) ;
#145 = CARTESIAN_POINT ( 'NONE',  ( 2.171701392760429073E-13, -7.617303090696536944E-15, 62.20000000000000284 ) ) ;
#146 = ORIENTED_EDGE ( 'NONE', *, *, #152, .T. ) ;
#147 = AXIS2_PLACEMENT_3D ( 'NONE', #94, #173, #80 ) ;
#148 = EDGE_LOOP ( 'NONE', ( #76 ) ) ;
#149 = ADVANCED_FACE ( 'NONE', ( #99 ), #140, .F. ) ;
#150 = APPROVAL_ROLE ( '' ) ;
#151 = DIRECTION ( 'NONE',  ( -3.491481338843133355E-15, 1.224646799147353207E-16, -1.000000000000000000 ) ) ;
#152 = EDGE_CURVE ( 'NONE', #100, #100, #197, .T. ) ;
#153 = FACE_OUTER_BOUND ( 'NONE', #82, .T. ) ;
#154 = DIRECTION ( 'NONE',  ( 1.000000000000000000, 0.0000000000000000000, -3.491481338843133355E-15 ) ) ;
#155 = APPLICATION_CONTEXT ( 'configuration controlled 3d designs of mechanical parts and assemblies' ) ;
#156 = CARTESIAN_POINT ( 'NONE',  ( 4.000000000000001776, 0.0000000000000000000, 0.4999999999999849565 ) ) ;
#157 = COORDINATED_UNIVERSAL_TIME_OFFSET ( 1, 0, .AHEAD. ) ;
#158 = CARTESIAN_POINT ( 'NONE',  ( 2.199633243471174140E-13, 2.399615652258959583E-32, 63.00000000000000000 ) ) ;
#159 = CYLINDRICAL_SURFACE ( 'NONE', #255, 4.000000000000000000 ) ;
#160 = PERSON_AND_ORGANIZATION ( #169, #245 ) ;
#161 = DIRECTION ( 'NONE',  ( -3.491481338843133355E-15, 1.224646799147353207E-16, -1.000000000000000000 ) ) ;
#162 = COORDINATED_UNIVERSAL_TIME_OFFSET ( 1, 0, .AHEAD. ) ;
#163 = CC_DESIGN_APPROVAL ( #86, ( #174 ) ) ;
#164 = VERTEX_POINT ( 'NONE', #130 ) ;
#165 = AXIS2_PLACEMENT_3D ( 'NONE', #52, #120, #26 ) ;
#166 = DIRECTION ( 'NONE',  ( 1.000000000000000000, 0.0000000000000000000, 0.0000000000000000000 ) ) ;
#167 = CARTESIAN_POINT ( 'NONE',  ( 1.745740669421562931E-15, 0.0000000000000000000, 0.4999999999999989453 ) ) ;
#168 = DATE_TIME_ROLE ( 'creation_date' ) ;
#169 = PERSON ( 'UNSPECIFIED', 'UNSPECIFIED', 'UNSPECIFIED', ('UNSPECIFIED'), ('UNSPECIFIED'), ('UNSPECIFIED') ) ;
#170 = DIRECTION ( 'NONE',  ( -3.491481338843133355E-15, 1.224646799147353207E-16, -1.000000000000000000 ) ) ;
#171 = CLOSED_SHELL ( 'NONE', ( #38, #110, #149, #138, #243, #217 ) ) ;
#172 = CARTESIAN_POINT ( 'NONE',  ( 1.745740669421562931E-15, 0.0000000000000000000, 0.4999999999999989453 ) ) ;
#173 = DIRECTION ( 'NONE',  ( 3.491481338843133355E-15, -0.0000000000000000000, 1.000000000000000000 ) ) ;
#174 = PRODUCT_DEFINITION ( 'UNKNOWN', '', #201, #178 ) ;
#175 = DIRECTION ( 'NONE',  ( 0.0000000000000000000, 1.000000000000000000, 0.0000000000000000000 ) ) ;
#176 = CYLINDRICAL_SURFACE ( 'NONE', #191, 3.999999999999998224 ) ;
#177 = EDGE_CURVE ( 'NONE', #62, #62, #81, .T. ) ;
#178 = DESIGN_CONTEXT ( 'detailed design', #95, 'design' ) ;
#179 = PERSON_AND_ORGANIZATION ( #169, #245 ) ;
#180 = CARTESIAN_POINT ( 'NONE',  ( -1.282749433769087757E-30, 0.0000000000000000000, -3.673940397442059868E-16 ) ) ;
#181 = LOCAL_TIME ( 11, 46, 8.000000000000000000, #157 ) ;
#182 = DIRECTION ( 'NONE',  ( 0.0000000000000000000, 1.000000000000000000, 0.0000000000000000000 ) ) ;
#183 = ORIENTED_EDGE ( 'NONE', *, *, #41, .F. ) ;
#184 = APPROVAL ( #49, 'UNSPECIFIED' ) ;
#185 = FACE_OUTER_BOUND ( 'NONE', #50, .T. ) ;
#186 = EDGE_LOOP ( 'NONE', ( #232 ) ) ;
#187 = SHAPE_DEFINITION_REPRESENTATION ( #210, #240 ) ;
#188 = PLANE ( 'NONE',  #93 ) ;
#189 = PERSON_AND_ORGANIZATION ( #169, #245 ) ;
#190 = DIRECTION ( 'NONE',  ( -1.000000000000000000, 0.0000000000000000000, 3.469446951953615767E-15 ) ) ;
#191 = AXIS2_PLACEMENT_3D ( 'NONE', #97, #170, #42 ) ;
#192 = PLANE ( 'NONE',  #20 ) ;
#193 =( LENGTH_UNIT ( ) NAMED_UNIT ( * ) SI_UNIT ( .MILLI., .METRE. ) );
#194 = DIRECTION ( 'NONE',  ( -3.491481338843133355E-15, 0.0000000000000000000, -1.000000000000000000 ) ) ;
#195 = CARTESIAN_POINT ( 'NONE',  ( 2.171701392760429073E-13, 3.999999999999989786, 62.20000000000000284 ) ) ;
#196 = PERSON_AND_ORGANIZATION ( #169, #245 ) ;
#197 = CIRCLE ( 'NONE', #165, 3.500000000000000000 ) ;
#198 = CARTESIAN_POINT ( 'NONE',  ( 6.633814543801952113E-14, 2.999519565323711931E-32, 19.00000000000000000 ) ) ;
#199 = CARTESIAN_POINT ( 'NONE',  ( 2.199633243471174140E-13, 3.199999999999990852, 63.00000000000000000 ) ) ;
#200 = DIRECTION ( 'NONE',  ( -3.491481338843133355E-15, 1.224646799147353207E-16, -1.000000000000000000 ) ) ;
#201 = PRODUCT_DEFINITION_FORMATION_WITH_SPECIFIED_SOURCE ( 'ANY', '', #78, .NOT_KNOWN. ) ;
#202 = PERSON_AND_ORGANIZATION ( #169, #245 ) ;
#203 = DATE_AND_TIME ( #29, #181 ) ;
#204 = FACE_OUTER_BOUND ( 'NONE', #144, .T. ) ;
#205 = LOCAL_TIME ( 11, 46, 8.000000000000000000, #263 ) ;
#206 = CALENDAR_DATE ( 2021, 18, 11 ) ;
#207 = PLANE ( 'NONE',  #108 ) ;
#208 = DIRECTION ( 'NONE',  ( -4.275831445896958607E-31, -1.000000000000000000, -1.224646799147353207E-16 ) ) ;
#209 = EDGE_CURVE ( 'NONE', #164, #164, #135, .T. ) ;
#210 = PRODUCT_DEFINITION_SHAPE ( 'NONE', 'NONE',  #174 ) ;
#211 = CARTESIAN_POINT ( 'NONE',  ( 9.077851480992146724E-14, 4.999999999999995559, 26.00000000000000000 ) ) ;
#212 = CC_DESIGN_PERSON_AND_ORGANIZATION_ASSIGNMENT ( #179, #84, ( #262 ) ) ;
#213 = CALENDAR_DATE ( 2021, 18, 11 ) ;
#214 = ORIENTED_EDGE ( 'NONE', *, *, #249, .T. ) ;
#215 = AXIS2_PLACEMENT_3D ( 'NONE', #101, #123, #190 ) ;
#216 = COORDINATED_UNIVERSAL_TIME_OFFSET ( 1, 0, .AHEAD. ) ;
#217 = ADVANCED_FACE ( 'NONE', ( #121 ), #207, .F. ) ;
#218 = AXIS2_PLACEMENT_3D ( 'NONE', #40, #125, #166 ) ;
#219 = APPROVAL_ROLE ( '' ) ;
#220 = DIRECTION ( 'NONE',  ( -1.000000000000000000, 0.0000000000000000000, 3.491481338843133355E-15 ) ) ;
#221 = FACE_BOUND ( 'NONE', #242, .T. ) ;
#222 = CIRCLE ( 'NONE', #54, 3.199999999999998845 ) ;
#223 = CARTESIAN_POINT ( 'NONE',  ( -8.551662891793915461E-31, 2.999519565323715216E-32, -2.449293598294706414E-16 ) ) ;
#224 = AXIS2_PLACEMENT_3D ( 'NONE', #142, #227, #4 ) ;
#225 = DIRECTION ( 'NONE',  ( 3.491481338843133355E-15, -1.224646799147353207E-16, 1.000000000000000000 ) ) ;
#226 = DIRECTION ( 'NONE',  ( -3.491481338843133355E-15, 1.224646799147353207E-16, -1.000000000000000000 ) ) ;
#227 = DIRECTION ( 'NONE',  ( -3.491481338843133355E-15, 1.224646799147353207E-16, -1.000000000000000000 ) ) ;
#228 = ORIENTED_EDGE ( 'NONE', *, *, #41, .T. ) ;
#229 = AXIS2_PLACEMENT_3D ( 'NONE', #145, #161, #182 ) ;
#230 = EDGE_LOOP ( 'NONE', ( #11 ) ) ;
#231 = APPROVAL_DATE_TIME ( #98, #237 ) ;
#232 = ORIENTED_EDGE ( 'NONE', *, *, #34, .F. ) ;
#233 = PERSON_AND_ORGANIZATION_ROLE ( 'creator' ) ;
#234 = LOCAL_TIME ( 11, 46, 8.000000000000000000, #216 ) ;
#235 = FACE_OUTER_BOUND ( 'NONE', #186, .T. ) ;
#236 = DATE_AND_TIME ( #213, #234 ) ;
#237 = APPROVAL ( #60, 'UNSPECIFIED' ) ;
#238 = FACE_OUTER_BOUND ( 'NONE', #91, .T. ) ;
#239 = CARTESIAN_POINT ( 'NONE',  ( 9.077851480992146724E-14, 0.0000000000000000000, 26.00000000000000000 ) ) ;
#240 = ADVANCED_BREP_SHAPE_REPRESENTATION ( '339047', ( #109, #103, #218 ), #5 ) ;
#241 = DATE_AND_TIME ( #136, #89 ) ;
#242 = EDGE_LOOP ( 'NONE', ( #55 ) ) ;
#243 = ADVANCED_FACE ( 'NONE', ( #30, #106 ), #188, .T. ) ;
#244 = EDGE_CURVE ( 'NONE', #88, #88, #118, .T. ) ;
#245 = ORGANIZATION ( 'UNSPECIFIED', 'UNSPECIFIED', '' ) ;
#246 = DIRECTION ( 'NONE',  ( 1.000000000000000000, 0.0000000000000000000, -3.491481338843133355E-15 ) ) ;
#247 = DATE_AND_TIME ( #36, #65 ) ;
#248 = EDGE_LOOP ( 'NONE', ( #214 ) ) ;
#249 = EDGE_CURVE ( 'NONE', #127, #127, #16, .T. ) ;
#250 = APPLICATION_PROTOCOL_DEFINITION ( 'international standard', 'config_control_design', 1994, #95 ) ;
#251 = PRODUCT_RELATED_PRODUCT_CATEGORY ( 'detail', '', ( #78 ) ) ;
#252 = ORIENTED_EDGE ( 'NONE', *, *, #244, .T. ) ;
#253 = DIRECTION ( 'NONE',  ( 3.491481338843133355E-15, -0.0000000000000000000, 1.000000000000000000 ) ) ;
#254 = DIRECTION ( 'NONE',  ( -3.491481338843133355E-15, 1.224646799147353207E-16, -1.000000000000000000 ) ) ;
#255 = AXIS2_PLACEMENT_3D ( 'NONE', #72, #226, #51 ) ;
#256 = FACE_OUTER_BOUND ( 'NONE', #8, .T. ) ;
#257 = CIRCLE ( 'NONE', #102, 4.000000000000000000 ) ;
#258 = CARTESIAN_POINT ( 'NONE',  ( 6.633814543801952113E-14, 3.999999999999997335, 19.00000000000000000 ) ) ;
#259 = FACE_OUTER_BOUND ( 'NONE', #139, .T. ) ;
#260 = APPROVAL_DATE_TIME ( #241, #184 ) ;
#261 = DATE_TIME_ROLE ( 'classification_date' ) ;
#262 = SECURITY_CLASSIFICATION ( '', '', #57 ) ;
#263 = COORDINATED_UNIVERSAL_TIME_OFFSET ( 1, 0, .AHEAD. ) ;
ENDSEC;
END-ISO-10303-21;
