ISO-10303-21;
HEADER;
FILE_DESCRIPTION (( 'STEP AP203' ),
    '1' );
FILE_NAME ('339046.step',
    '2021-11-18T10:46:08',
    ( '' ),
    ( '' ),
    'SwSTEP 2.0',
    'SolidWorks 2019',
    '' );
FILE_SCHEMA (( 'CONFIG_CONTROL_DESIGN' ));
ENDSEC;

DATA;
#1 = APPROVAL_STATUS ( 'not_yet_approved' ) ;
#2 = APPROVAL_DATE_TIME ( #177, #184 ) ;
#3 = FACE_OUTER_BOUND ( 'NONE', #134, .T. ) ;
#4 = PERSON_AND_ORGANIZATION_ROLE ( 'creator' ) ;
#5 = LOCAL_TIME ( 11, 46, 8.000000000000000000, #142 ) ;
#6 = CARTESIAN_POINT ( 'NONE',  ( 2.800000000000073097, 0.0000000000000000000, 20.99999999999998934 ) ) ;
#7 = EDGE_CURVE ( 'NONE', #130, #130, #126, .T. ) ;
#8 = VERTEX_POINT ( 'NONE', #6 ) ;
#9 = DIRECTION ( 'NONE',  ( -3.491481338843133355E-15, 1.224646799147353207E-16, -1.000000000000000000 ) ) ;
#10 = FACE_OUTER_BOUND ( 'NONE', #99, .T. ) ;
#11 = CC_DESIGN_PERSON_AND_ORGANIZATION_ASSIGNMENT ( #139, #118, ( #213 ) ) ;
#12 = DIRECTION ( 'NONE',  ( 0.0000000000000000000, 1.000000000000000000, 0.0000000000000000000 ) ) ;
#13 = MANIFOLD_SOLID_BREP ( 'Corps-Déplacer/Copier1[2]', #90 ) ;
#14 = LOCAL_TIME ( 11, 46, 8.000000000000000000, #20 ) ;
#15 = ADVANCED_FACE ( 'NONE', ( #104, #3 ), #232, .T. ) ;
#16 = FACE_OUTER_BOUND ( 'NONE', #121, .T. ) ;
#17 = EDGE_LOOP ( 'NONE', ( #30 ) ) ;
#18 = CC_DESIGN_APPROVAL ( #227, ( #193 ) ) ;
#19 = EDGE_LOOP ( 'NONE', ( #140 ) ) ;
#20 = COORDINATED_UNIVERSAL_TIME_OFFSET ( 1, 0, .AHEAD. ) ;
#21 = DIRECTION ( 'NONE',  ( 0.0000000000000000000, 1.000000000000000000, 0.0000000000000000000 ) ) ;
#22 = SECURITY_CLASSIFICATION_LEVEL ( 'unclassified' ) ;
#23 = DIRECTION ( 'NONE',  ( 4.275831445896959482E-31, 1.000000000000000000, 1.224646799147353207E-16 ) ) ;
#24 = CALENDAR_DATE ( 2021, 18, 11 ) ;
#25 =( LENGTH_UNIT ( ) NAMED_UNIT ( * ) SI_UNIT ( .MILLI., .METRE. ) );
#26 = CARTESIAN_POINT ( 'NONE',  ( 0.0000000000000000000, 0.0000000000000000000, 0.0000000000000000000 ) ) ;
#27 = PERSON_AND_ORGANIZATION_ROLE ( 'design_owner' ) ;
#28 = DIRECTION ( 'NONE',  ( 3.491481338843133355E-15, -0.0000000000000000000, 1.000000000000000000 ) ) ;
#29 = DIRECTION ( 'NONE',  ( -3.491481338843133355E-15, 1.224646799147353207E-16, -1.000000000000000000 ) ) ;
#30 = ORIENTED_EDGE ( 'NONE', *, *, #217, .F. ) ;
#31 = DIRECTION ( 'NONE',  ( -3.491481338843133355E-15, 1.224646799147353207E-16, -1.000000000000000000 ) ) ;
#32 = DIRECTION ( 'NONE',  ( 3.491481338843133355E-15, -0.0000000000000000000, 1.000000000000000000 ) ) ;
#33 = DIRECTION ( 'NONE',  ( 3.491481338843133355E-15, -0.0000000000000000000, 1.000000000000000000 ) ) ;
#34 = DIRECTION ( 'NONE',  ( -4.275831445896958607E-31, -1.000000000000000000, -1.224646799147353207E-16 ) ) ;
#35 = LOCAL_TIME ( 11, 46, 8.000000000000000000, #63 ) ;
#36 = CC_DESIGN_PERSON_AND_ORGANIZATION_ASSIGNMENT ( #239, #41, ( #213 ) ) ;
#37 = LOCAL_TIME ( 11, 46, 8.000000000000000000, #225 ) ;
#38 = CC_DESIGN_SECURITY_CLASSIFICATION ( #235, ( #213 ) ) ;
#39 = DATE_TIME_ROLE ( 'creation_date' ) ;
#40 = CARTESIAN_POINT ( 'NONE',  ( 1.990144363140586139E-13, -6.980486755139912911E-15, 57.00000000000000000 ) ) ;
#41 = PERSON_AND_ORGANIZATION_ROLE ( 'creator' ) ;
#42 = ORIENTED_EDGE ( 'NONE', *, *, #145, .F. ) ;
#43 = CIRCLE ( 'NONE', #141, 2.999999999999999112 ) ;
#44 = TOROIDAL_SURFACE ( 'NONE', #153, 1.500000000000000000, 1.500000000000000000 ) ;
#45 = CALENDAR_DATE ( 2021, 18, 11 ) ;
#46 = CARTESIAN_POINT ( 'NONE',  ( -2.999999999999926281, -2.571758278209442056E-15, 21.00000000000001421 ) ) ;
#47 = EDGE_LOOP ( 'NONE', ( #42 ) ) ;
#48 = PLANE ( 'NONE',  #62 ) ;
#49 = CARTESIAN_POINT ( 'NONE',  ( 4.538925740496073362E-14, 0.0000000000000000000, 13.00000000000000000 ) ) ;
#50 = FACE_OUTER_BOUND ( 'NONE', #257, .T. ) ;
#51 = DIRECTION ( 'NONE',  ( 1.000000000000000000, 0.0000000000000000000, -3.491481338843133355E-15 ) ) ;
#52 = APPLICATION_CONTEXT ( 'configuration controlled 3d designs of mechanical parts and assemblies' ) ;
#53 = FACE_OUTER_BOUND ( 'NONE', #17, .T. ) ;
#54 = APPROVAL_PERSON_ORGANIZATION ( #175, #184, #203 ) ;
#56 = APPLICATION_CONTEXT ( 'configuration controlled 3d designs of mechanical parts and assemblies' ) ;
#55 = PRODUCT_DEFINITION_SHAPE ( 'NONE', 'NONE',  #193 ) ;
#57 =( NAMED_UNIT ( * ) SI_UNIT ( $, .STERADIAN. ) SOLID_ANGLE_UNIT ( ) );
#58 = CIRCLE ( 'NONE', #252, 2.999999999999999556 ) ;
#59 = PERSON_AND_ORGANIZATION ( #135, #146 ) ;
#60 = DATE_TIME_ROLE ( 'classification_date' ) ;
#61 = ORIENTED_EDGE ( 'NONE', *, *, #211, .T. ) ;
#62 = AXIS2_PLACEMENT_3D ( 'NONE', #86, #165, #84 ) ;
#63 = COORDINATED_UNIVERSAL_TIME_OFFSET ( 1, 0, .AHEAD. ) ;
#64 = ORIENTED_EDGE ( 'NONE', *, *, #237, .F. ) ;
#65 = CALENDAR_DATE ( 2021, 18, 11 ) ;
#66 = CALENDAR_DATE ( 2021, 18, 11 ) ;
#67 = FACE_OUTER_BOUND ( 'NONE', #102, .T. ) ;
#68 = PLANE ( 'NONE',  #191 ) ;
#69 = CARTESIAN_POINT ( 'NONE',  ( 7.332110811570581308E-14, -2.571758278209442056E-15, 21.00000000000000355 ) ) ;
#70 = AXIS2_PLACEMENT_3D ( 'NONE', #40, #202, #21 ) ;
#71 = CARTESIAN_POINT ( 'NONE',  ( 7.332110811570581308E-14, 3.999999999999998224, 21.00000000000000355 ) ) ;
#72 = ADVANCED_BREP_SHAPE_REPRESENTATION ( '339046', ( #183, #13, #200 ), #207 ) ;
#73 = VERTEX_POINT ( 'NONE', #94 ) ;
#74 = LOCAL_TIME ( 11, 46, 8.000000000000000000, #242 ) ;
#75 = APPROVAL_DATE_TIME ( #262, #215 ) ;
#76 = PERSON_AND_ORGANIZATION ( #135, #146 ) ;
#77 = DIRECTION ( 'NONE',  ( 1.000000000000000000, 0.0000000000000000000, -3.491481338843133750E-15 ) ) ;
#78 = ADVANCED_FACE ( 'NONE', ( #205, #122 ), #226, .T. ) ;
#79 = CARTESIAN_POINT ( 'NONE',  ( 4.538925740496073362E-14, 2.999999999999998224, 13.00000000000000000 ) ) ;
#80 = APPLICATION_PROTOCOL_DEFINITION ( 'international standard', 'config_control_design', 1994, #52 ) ;
#81 = AXIS2_PLACEMENT_3D ( 'NONE', #152, #132, #206 ) ;
#82 = FACE_OUTER_BOUND ( 'NONE', #150, .T. ) ;
#83 = APPLICATION_PROTOCOL_DEFINITION ( 'international standard', 'config_control_design', 1994, #56 ) ;
#84 = DIRECTION ( 'NONE',  ( -4.275831445896958607E-31, -1.000000000000000000, -1.224646799147353207E-16 ) ) ;
#85 = APPROVAL_PERSON_ORGANIZATION ( #59, #227, #97 ) ;
#86 = CARTESIAN_POINT ( 'NONE',  ( 4.538925740496073362E-14, 2.249639673992783675E-32, 13.00000000000000000 ) ) ;
#87 = DIRECTION ( 'NONE',  ( 3.491481338843133355E-15, -0.0000000000000000000, 1.000000000000000000 ) ) ;
#88 = CARTESIAN_POINT ( 'NONE',  ( 0.0000000000000000000, 0.0000000000000000000, 0.0000000000000000000 ) ) ;
#89 = PRODUCT_RELATED_PRODUCT_CATEGORY ( 'detail', '', ( #251 ) ) ;
#90 = CLOSED_SHELL ( 'NONE', ( #78, #208, #161, #93 ) ) ;
#91 = CARTESIAN_POINT ( 'NONE',  ( -1.282749433769087757E-30, 0.0000000000000000000, -3.673940397442059868E-16 ) ) ;
#92 = AXIS2_PLACEMENT_3D ( 'NONE', #128, #32, #210 ) ;
#93 = ADVANCED_FACE ( 'NONE', ( #82 ), #176, .T. ) ;
#94 = CARTESIAN_POINT ( 'NONE',  ( 1.969195475107527465E-13, 2.999999999999992450, 56.40000000000000568 ) ) ;
#95 = ORIENTED_EDGE ( 'NONE', *, *, #7, .T. ) ;
#96 = ADVANCED_FACE ( 'NONE', ( #53, #194 ), #216, .T. ) ;
#97 = APPROVAL_ROLE ( '' ) ;
#98 = DIRECTION ( 'NONE',  ( 3.491481338843133355E-15, -0.0000000000000000000, 1.000000000000000000 ) ) ;
#99 = EDGE_LOOP ( 'NONE', ( #143 ) ) ;
#100 = PERSON_AND_ORGANIZATION ( #135, #146 ) ;
#101 = CC_DESIGN_PERSON_AND_ORGANIZATION_ASSIGNMENT ( #76, #4, ( #193 ) ) ;
#102 = EDGE_LOOP ( 'NONE', ( #198 ) ) ;
#103 = APPROVAL_ROLE ( '' ) ;
#104 = FACE_BOUND ( 'NONE', #192, .T. ) ;
#105 = DIRECTION ( 'NONE',  ( 0.0000000000000000000, 0.0000000000000000000, 1.000000000000000000 ) ) ;
#106 = FACE_OUTER_BOUND ( 'NONE', #19, .T. ) ;
#107 = CIRCLE ( 'NONE', #92, 1.500000000000000222 ) ;
#108 = CARTESIAN_POINT ( 'NONE',  ( 5.237222008264695300E-15, 0.0000000000000000000, 1.499999999999998668 ) ) ;
#109 = CIRCLE ( 'NONE', #81, 2.799999999999999822 ) ;
#110 = CARTESIAN_POINT ( 'NONE',  ( 4.538925740496073362E-14, 2.249639673992783675E-32, 13.00000000000000000 ) ) ;
#111 = AXIS2_PLACEMENT_3D ( 'NONE', #189, #31, #12 ) ;
#112 = AXIS2_PLACEMENT_3D ( 'NONE', #117, #119, #155 ) ;
#113 = DIRECTION ( 'NONE',  ( -3.491481338843133355E-15, 0.0000000000000000000, -1.000000000000000000 ) ) ;
#114 = ADVANCED_FACE ( 'NONE', ( #16, #256 ), #131, .T. ) ;
#115 = CIRCLE ( 'NONE', #111, 3.000000000000000000 ) ;
#116 = PERSON_AND_ORGANIZATION ( #135, #146 ) ;
#117 = CARTESIAN_POINT ( 'NONE',  ( 1.969195475107527465E-13, -6.907007947191072769E-15, 56.40000000000000568 ) ) ;
#118 = PERSON_AND_ORGANIZATION_ROLE ( 'design_supplier' ) ;
#119 = DIRECTION ( 'NONE',  ( -3.491481338843133355E-15, 1.224646799147353207E-16, -1.000000000000000000 ) ) ;
#120 = APPROVAL_STATUS ( 'not_yet_approved' ) ;
#121 = EDGE_LOOP ( 'NONE', ( #218 ) ) ;
#122 = FACE_OUTER_BOUND ( 'NONE', #181, .T. ) ;
#123 = PLANE ( 'NONE',  #221 ) ;
#124 = CC_DESIGN_PERSON_AND_ORGANIZATION_ASSIGNMENT ( #137, #27, ( #251 ) ) ;
#125 = DIRECTION ( 'NONE',  ( 3.491481338843133355E-15, -0.0000000000000000000, 1.000000000000000000 ) ) ;
#126 = CIRCLE ( 'NONE', #70, 2.400000000000006128 ) ;
#127 = DIRECTION ( 'NONE',  ( 1.000000000000000000, 0.0000000000000000000, -3.717264591378872796E-15 ) ) ;
#128 = CARTESIAN_POINT ( 'NONE',  ( -4.542565983319587431E-30, 0.0000000000000000000, -1.301042606982605321E-15 ) ) ;
#129 = AXIS2_PLACEMENT_3D ( 'NONE', #49, #125, #127 ) ;
#130 = VERTEX_POINT ( 'NONE', #179 ) ;
#131 = CYLINDRICAL_SURFACE ( 'NONE', #229, 2.799999999999999822 ) ;
#132 = DIRECTION ( 'NONE',  ( 3.491481338843133355E-15, -0.0000000000000000000, 1.000000000000000000 ) ) ;
#133 = AXIS2_PLACEMENT_3D ( 'NONE', #108, #33, #249 ) ;
#134 = EDGE_LOOP ( 'NONE', ( #180 ) ) ;
#135 = PERSON ( 'UNSPECIFIED', 'UNSPECIFIED', 'UNSPECIFIED', ('UNSPECIFIED'), ('UNSPECIFIED'), ('UNSPECIFIED') ) ;
#136 = CARTESIAN_POINT ( 'NONE',  ( 2.800000000000045564, 0.0000000000000000000, 12.99999999999998934 ) ) ;
#137 = PERSON_AND_ORGANIZATION ( #135, #146 ) ;
#138 = ORIENTED_EDGE ( 'NONE', *, *, #211, .F. ) ;
#139 = PERSON_AND_ORGANIZATION ( #135, #146 ) ;
#140 = ORIENTED_EDGE ( 'NONE', *, *, #217, .T. ) ;
#141 = AXIS2_PLACEMENT_3D ( 'NONE', #212, #187, #166 ) ;
#142 = COORDINATED_UNIVERSAL_TIME_OFFSET ( 1, 0, .AHEAD. ) ;
#143 = ORIENTED_EDGE ( 'NONE', *, *, #254, .F. ) ;
#144 = CC_DESIGN_DATE_AND_TIME_ASSIGNMENT ( #228, #60, ( #235 ) ) ;
#145 = EDGE_CURVE ( 'NONE', #8, #8, #109, .T. ) ;
#146 = ORGANIZATION ( 'UNSPECIFIED', 'UNSPECIFIED', '' ) ;
#147 = FACE_OUTER_BOUND ( 'NONE', #244, .T. ) ;
#148 = CYLINDRICAL_SURFACE ( 'NONE', #160, 2.999999999999999556 ) ;
#149 = CC_DESIGN_APPROVAL ( #184, ( #235 ) ) ;
#150 = EDGE_LOOP ( 'NONE', ( #138 ) ) ;
#151 = UNCERTAINTY_MEASURE_WITH_UNIT (LENGTH_MEASURE( 1.000000000000000082E-05 ), #25, 'distance_accuracy_value', 'NONE');
#152 = CARTESIAN_POINT ( 'NONE',  ( 7.332110811570580046E-14, 0.0000000000000000000, 21.00000000000000000 ) ) ;
#153 = AXIS2_PLACEMENT_3D ( 'NONE', #247, #28, #51 ) ;
#154 = ORIENTED_EDGE ( 'NONE', *, *, #224, .T. ) ;
#155 = DIRECTION ( 'NONE',  ( 0.0000000000000000000, 1.000000000000000000, 0.0000000000000000000 ) ) ;
#156 = CARTESIAN_POINT ( 'NONE',  ( 3.000000000000005329, 0.0000000000000000000, 1.499999999999988232 ) ) ;
#157 = CARTESIAN_POINT ( 'NONE',  ( -6.413747168845438786E-31, 2.249639673992786412E-32, -1.836970198721029934E-16 ) ) ;
#158 = DATE_AND_TIME ( #65, #74 ) ;
#159 = VERTEX_POINT ( 'NONE', #136 ) ;
#160 = AXIS2_PLACEMENT_3D ( 'NONE', #250, #9, #234 ) ;
#161 = ADVANCED_FACE ( 'NONE', ( #233, #10 ), #44, .T. ) ;
#162 = APPROVAL_DATE_TIME ( #158, #227 ) ;
#163 = DIRECTION ( 'NONE',  ( 3.491481338843133355E-15, -1.224646799147353207E-16, 1.000000000000000000 ) ) ;
#164 = DIRECTION ( 'NONE',  ( 1.000000000000000000, 0.0000000000000000000, 0.0000000000000000000 ) ) ;
#165 = DIRECTION ( 'NONE',  ( 3.491481338843133355E-15, -1.224646799147353207E-16, 1.000000000000000000 ) ) ;
#166 = DIRECTION ( 'NONE',  ( 0.0000000000000000000, 1.000000000000000000, 0.0000000000000000000 ) ) ;
#167 = DIRECTION ( 'NONE',  ( -3.491481338843133355E-15, 1.224646799147353207E-16, -1.000000000000000000 ) ) ;
#168 = ADVANCED_FACE ( 'NONE', ( #50 ), #68, .F. ) ;
#169 = ORIENTED_EDGE ( 'NONE', *, *, #7, .F. ) ;
#170 = DIRECTION ( 'NONE',  ( 4.275831445896958607E-31, 1.000000000000000000, 1.224646799147353207E-16 ) ) ;
#171 = EDGE_LOOP ( 'NONE', ( #174 ) ) ;
#172 = CALENDAR_DATE ( 2021, 18, 11 ) ;
#173 = APPROVAL_PERSON_ORGANIZATION ( #116, #215, #103 ) ;
#174 = ORIENTED_EDGE ( 'NONE', *, *, #145, .T. ) ;
#175 = PERSON_AND_ORGANIZATION ( #135, #146 ) ;
#176 = PLANE ( 'NONE',  #188 ) ;
#177 = DATE_AND_TIME ( #24, #5 ) ;
#178 = ORIENTED_EDGE ( 'NONE', *, *, #254, .T. ) ;
#179 = CARTESIAN_POINT ( 'NONE',  ( 1.990144363140586139E-13, 2.399999999999999467, 57.00000000000000000 ) ) ;
#180 = ORIENTED_EDGE ( 'NONE', *, *, #248, .F. ) ;
#181 = EDGE_LOOP ( 'NONE', ( #154 ) ) ;
#182 = DIRECTION ( 'NONE',  ( 4.275831445896958607E-31, 1.000000000000000000, 1.224646799147353207E-16 ) ) ;
#183 = MANIFOLD_SOLID_BREP ( 'Corps-Déplacer/Copier1[1]', #240 ) ;
#184 = APPROVAL ( #1, 'UNSPECIFIED' ) ;
#185 = FACE_OUTER_BOUND ( 'NONE', #204, .T. ) ;
#186 = DIRECTION ( 'NONE',  ( -3.491481338843133355E-15, 1.224646799147353207E-16, -1.000000000000000000 ) ) ;
#187 = DIRECTION ( 'NONE',  ( -3.491481338843133355E-15, 1.224646799147353207E-16, -1.000000000000000000 ) ) ;
#188 = AXIS2_PLACEMENT_3D ( 'NONE', #157, #186, #170 ) ;
#189 = CARTESIAN_POINT ( 'NONE',  ( 4.538925740496073362E-14, -1.592040838891559095E-15, 13.00000000000000000 ) ) ;
#190 = CC_DESIGN_PERSON_AND_ORGANIZATION_ASSIGNMENT ( #100, #241, ( #235 ) ) ;
#191 = AXIS2_PLACEMENT_3D ( 'NONE', #110, #163, #34 ) ;
#192 = EDGE_LOOP ( 'NONE', ( #95 ) ) ;
#193 = PRODUCT_DEFINITION ( 'UNKNOWN', '', #213, #220 ) ;
#194 = FACE_BOUND ( 'NONE', #171, .T. ) ;
#195 = ORIENTED_EDGE ( 'NONE', *, *, #248, .T. ) ;
#196 = CC_DESIGN_APPROVAL ( #215, ( #213 ) ) ;
#197 = VERTEX_POINT ( 'NONE', #156 ) ;
#198 = ORIENTED_EDGE ( 'NONE', *, *, #224, .F. ) ;
#199 = APPROVAL_STATUS ( 'not_yet_approved' ) ;
#200 = AXIS2_PLACEMENT_3D ( 'NONE', #88, #105, #164 ) ;
#201 = CARTESIAN_POINT ( 'NONE',  ( 1.500000000000000222, 0.0000000000000000000, -6.538264615247306143E-15 ) ) ;
#202 = DIRECTION ( 'NONE',  ( -3.491481338843133355E-15, 1.224646799147353207E-16, -1.000000000000000000 ) ) ;
#203 = APPROVAL_ROLE ( '' ) ;
#204 = EDGE_LOOP ( 'NONE', ( #169 ) ) ;
#205 = FACE_OUTER_BOUND ( 'NONE', #223, .T. ) ;
#206 = DIRECTION ( 'NONE',  ( 1.000000000000000000, 0.0000000000000000000, -3.717264591378872796E-15 ) ) ;
#207 =( GEOMETRIC_REPRESENTATION_CONTEXT ( 3 ) GLOBAL_UNCERTAINTY_ASSIGNED_CONTEXT ( ( #151 ) ) GLOBAL_UNIT_ASSIGNED_CONTEXT ( ( #25, #238, #57 ) ) REPRESENTATION_CONTEXT ( 'NONE', 'WORKASPACE' ) );
#208 = ADVANCED_FACE ( 'NONE', ( #67 ), #48, .T. ) ;
#209 = DIRECTION ( 'NONE',  ( -1.000000000000000000, 0.0000000000000000000, 3.469446951953614583E-15 ) ) ;
#210 = DIRECTION ( 'NONE',  ( 1.000000000000000000, 0.0000000000000000000, -3.491481338843133355E-15 ) ) ;
#211 = EDGE_CURVE ( 'NONE', #214, #214, #107, .T. ) ;
#212 = CARTESIAN_POINT ( 'NONE',  ( 1.969195475107527465E-13, -6.907007947191072769E-15, 56.40000000000000568 ) ) ;
#213 = PRODUCT_DEFINITION_FORMATION_WITH_SPECIFIED_SOURCE ( 'ANY', '', #251, .NOT_KNOWN. ) ;
#214 = VERTEX_POINT ( 'NONE', #201 ) ;
#215 = APPROVAL ( #199, 'UNSPECIFIED' ) ;
#216 = PLANE ( 'NONE',  #243 ) ;
#217 = EDGE_CURVE ( 'NONE', #263, #263, #58, .T. ) ;
#218 = ORIENTED_EDGE ( 'NONE', *, *, #237, .T. ) ;
#219 = EDGE_LOOP ( 'NONE', ( #61 ) ) ;
#220 = DESIGN_CONTEXT ( 'detailed design', #56, 'design' ) ;
#221 = AXIS2_PLACEMENT_3D ( 'NONE', #246, #167, #182 ) ;
#222 = DATE_AND_TIME ( #66, #37 ) ;
#223 = EDGE_LOOP ( 'NONE', ( #178 ) ) ;
#224 = EDGE_CURVE ( 'NONE', #259, #259, #115, .T. ) ;
#225 = COORDINATED_UNIVERSAL_TIME_OFFSET ( 1, 0, .AHEAD. ) ;
#226 = CYLINDRICAL_SURFACE ( 'NONE', #231, 3.000000000000000000 ) ;
#227 = APPROVAL ( #120, 'UNSPECIFIED' ) ;
#228 = DATE_AND_TIME ( #45, #35 ) ;
#229 = AXIS2_PLACEMENT_3D ( 'NONE', #91, #98, #77 ) ;
#230 = SHAPE_DEFINITION_REPRESENTATION ( #55, #72 ) ;
#231 = AXIS2_PLACEMENT_3D ( 'NONE', #26, #29, #23 ) ;
#232 = CONICAL_SURFACE ( 'NONE', #112, 2.999999999999999112, 0.7853981633974453924 ) ;
#233 = FACE_OUTER_BOUND ( 'NONE', #219, .T. ) ;
#234 = DIRECTION ( 'NONE',  ( 4.275831445896959482E-31, 1.000000000000000000, 1.224646799147353207E-16 ) ) ;
#235 = SECURITY_CLASSIFICATION ( '', '', #22 ) ;
#236 = DIRECTION ( 'NONE',  ( -1.000000000000000000, 0.0000000000000000000, 3.491481338843133355E-15 ) ) ;
#237 = EDGE_CURVE ( 'NONE', #159, #159, #261, .T. ) ;
#238 =( NAMED_UNIT ( * ) PLANE_ANGLE_UNIT ( ) SI_UNIT ( $, .RADIAN. ) );
#239 = PERSON_AND_ORGANIZATION ( #135, #146 ) ;
#240 = CLOSED_SHELL ( 'NONE', ( #260, #15, #258, #114, #96, #168 ) ) ;
#241 = PERSON_AND_ORGANIZATION_ROLE ( 'classification_officer' ) ;
#242 = COORDINATED_UNIVERSAL_TIME_OFFSET ( 1, 0, .AHEAD. ) ;
#243 = AXIS2_PLACEMENT_3D ( 'NONE', #71, #113, #236 ) ;
#244 = EDGE_LOOP ( 'NONE', ( #195 ) ) ;
#245 = MECHANICAL_CONTEXT ( 'NONE', #52, 'mechanical' ) ;
#246 = CARTESIAN_POINT ( 'NONE',  ( 1.990144363140586139E-13, 1.799711739194223382E-32, 57.00000000000000000 ) ) ;
#247 = CARTESIAN_POINT ( 'NONE',  ( 5.237222008264695300E-15, 0.0000000000000000000, 1.499999999999998668 ) ) ;
#248 = EDGE_CURVE ( 'NONE', #73, #73, #43, .T. ) ;
#249 = DIRECTION ( 'NONE',  ( 1.000000000000000000, 0.0000000000000000000, -3.469446951953614189E-15 ) ) ;
#250 = CARTESIAN_POINT ( 'NONE',  ( 0.0000000000000000000, 0.0000000000000000000, 0.0000000000000000000 ) ) ;
#251 = PRODUCT ( '339046', '339046', '', ( #245 ) ) ;
#252 = AXIS2_PLACEMENT_3D ( 'NONE', #69, #87, #209 ) ;
#253 = CC_DESIGN_DATE_AND_TIME_ASSIGNMENT ( #222, #39, ( #193 ) ) ;
#254 = EDGE_CURVE ( 'NONE', #197, #197, #255, .T. ) ;
#255 = CIRCLE ( 'NONE', #133, 3.000000000000000000 ) ;
#256 = FACE_OUTER_BOUND ( 'NONE', #47, .T. ) ;
#257 = EDGE_LOOP ( 'NONE', ( #64 ) ) ;
#258 = ADVANCED_FACE ( 'NONE', ( #185 ), #123, .F. ) ;
#259 = VERTEX_POINT ( 'NONE', #79 ) ;
#260 = ADVANCED_FACE ( 'NONE', ( #147, #106 ), #148, .T. ) ;
#261 = CIRCLE ( 'NONE', #129, 2.799999999999999822 ) ;
#262 = DATE_AND_TIME ( #172, #14 ) ;
#263 = VERTEX_POINT ( 'NONE', #46 ) ;
ENDSEC;
END-ISO-10303-21;
