ISO-10303-21;
HEADER;
FILE_DESCRIPTION (( 'STEP AP203' ),
    '1' );
FILE_NAME ('339045.step',
    '2021-11-18T10:46:07',
    ( '' ),
    ( '' ),
    'SwSTEP 2.0',
    'SolidWorks 2019',
    '' );
FILE_SCHEMA (( 'CONFIG_CONTROL_DESIGN' ));
ENDSEC;

DATA;
#1 = PERSON_AND_ORGANIZATION ( #234, #128 ) ;
#2 = COORDINATED_UNIVERSAL_TIME_OFFSET ( 1, 0, .AHEAD. ) ;
#3 = SECURITY_CLASSIFICATION_LEVEL ( 'unclassified' ) ;
#4 =( NAMED_UNIT ( * ) PLANE_ANGLE_UNIT ( ) SI_UNIT ( $, .RADIAN. ) );
#5 = EDGE_LOOP ( 'NONE', ( #243 ) ) ;
#6 = MANIFOLD_SOLID_BREP ( 'Corps-Déplacer/Copier1[2]', #248 ) ;
#7 = ORIENTED_EDGE ( 'NONE', *, *, #205, .F. ) ;
#8 = CARTESIAN_POINT ( 'NONE',  ( 4.538925740496073362E-14, -1.592040838891559095E-15, 13.00000000000000000 ) ) ;
#9 = CALENDAR_DATE ( 2021, 18, 11 ) ;
#10 = CARTESIAN_POINT ( 'NONE',  ( 1.990144363140586139E-13, -6.980486755139912911E-15, 57.00000000000000000 ) ) ;
#11 = AXIS2_PLACEMENT_3D ( 'NONE', #8, #90, #249 ) ;
#12 = FACE_OUTER_BOUND ( 'NONE', #25, .T. ) ;
#13 = CYLINDRICAL_SURFACE ( 'NONE', #101, 3.000000000000000000 ) ;
#14 = EDGE_CURVE ( 'NONE', #152, #152, #258, .T. ) ;
#15 = DIRECTION ( 'NONE',  ( 3.491481338843133355E-15, -1.224646799147353207E-16, 1.000000000000000000 ) ) ;
#16 = APPROVAL ( #240, 'UNSPECIFIED' ) ;
#17 = PRODUCT_DEFINITION_FORMATION_WITH_SPECIFIED_SOURCE ( 'ANY', '', #92, .NOT_KNOWN. ) ;
#18 = CARTESIAN_POINT ( 'NONE',  ( 1.969195475107527465E-13, -6.907007947191072769E-15, 56.40000000000000568 ) ) ;
#19 = EDGE_LOOP ( 'NONE', ( #65 ) ) ;
#20 = CALENDAR_DATE ( 2021, 18, 11 ) ;
#21 = APPROVAL_ROLE ( '' ) ;
#22 = ORIENTED_EDGE ( 'NONE', *, *, #181, .F. ) ;
#23 = CC_DESIGN_PERSON_AND_ORGANIZATION_ASSIGNMENT ( #102, #29, ( #178 ) ) ;
#24 = PERSON_AND_ORGANIZATION_ROLE ( 'design_supplier' ) ;
#25 = EDGE_LOOP ( 'NONE', ( #159 ) ) ;
#26 = DIRECTION ( 'NONE',  ( 0.0000000000000000000, 0.0000000000000000000, 1.000000000000000000 ) ) ;
#27 = EDGE_LOOP ( 'NONE', ( #7 ) ) ;
#28 = ADVANCED_FACE ( 'NONE', ( #226 ), #108, .F. ) ;
#29 = PERSON_AND_ORGANIZATION_ROLE ( 'creator' ) ;
#30 = ORIENTED_EDGE ( 'NONE', *, *, #99, .F. ) ;
#31 = EDGE_LOOP ( 'NONE', ( #59 ) ) ;
#32 = CC_DESIGN_PERSON_AND_ORGANIZATION_ASSIGNMENT ( #1, #105, ( #92 ) ) ;
#33 = FACE_OUTER_BOUND ( 'NONE', #19, .T. ) ;
#34 = FACE_OUTER_BOUND ( 'NONE', #183, .T. ) ;
#35 = CIRCLE ( 'NONE', #89, 2.799999999999999822 ) ;
#36 = FACE_OUTER_BOUND ( 'NONE', #100, .T. ) ;
#37 = CARTESIAN_POINT ( 'NONE',  ( -2.999999999999926281, -2.571758278209442056E-15, 21.00000000000001421 ) ) ;
#38 = ADVANCED_FACE ( 'NONE', ( #247, #122 ), #167, .T. ) ;
#39 = APPROVAL_STATUS ( 'not_yet_approved' ) ;
#40 = EDGE_LOOP ( 'NONE', ( #245 ) ) ;
#41 = CALENDAR_DATE ( 2021, 18, 11 ) ;
#42 = AXIS2_PLACEMENT_3D ( 'NONE', #204, #252, #112 ) ;
#43 = LOCAL_TIME ( 11, 46, 7.000000000000000000, #121 ) ;
#44 = ADVANCED_FACE ( 'NONE', ( #223 ), #201, .T. ) ;
#45 = CARTESIAN_POINT ( 'NONE',  ( 7.332110811570581308E-14, -2.571758278209442056E-15, 21.00000000000000355 ) ) ;
#46 = EDGE_LOOP ( 'NONE', ( #97 ) ) ;
#47 = EDGE_CURVE ( 'NONE', #257, #257, #103, .T. ) ;
#48 = ORIENTED_EDGE ( 'NONE', *, *, #199, .F. ) ;
#49 = DIRECTION ( 'NONE',  ( -3.491481338843133355E-15, 1.224646799147353207E-16, -1.000000000000000000 ) ) ;
#50 = CARTESIAN_POINT ( 'NONE',  ( 3.491481338843129017E-15, 0.0000000000000000000, 0.9999999999999986677 ) ) ;
#51 = DIRECTION ( 'NONE',  ( 3.491481338843133355E-15, -0.0000000000000000000, 1.000000000000000000 ) ) ;
#52 = DIRECTION ( 'NONE',  ( 0.0000000000000000000, 1.000000000000000000, 0.0000000000000000000 ) ) ;
#53 = AXIS2_PLACEMENT_3D ( 'NONE', #50, #254, #206 ) ;
#54 = EDGE_CURVE ( 'NONE', #113, #113, #109, .T. ) ;
#55 = CC_DESIGN_APPROVAL ( #16, ( #81 ) ) ;
#56 = DIRECTION ( 'NONE',  ( -3.491481338843133355E-15, 1.224646799147353207E-16, -1.000000000000000000 ) ) ;
#57 = VERTEX_POINT ( 'NONE', #132 ) ;
#58 = CC_DESIGN_PERSON_AND_ORGANIZATION_ASSIGNMENT ( #244, #141, ( #81 ) ) ;
#59 = ORIENTED_EDGE ( 'NONE', *, *, #54, .F. ) ;
#60 = APPROVAL_STATUS ( 'not_yet_approved' ) ;
#61 = ORIENTED_EDGE ( 'NONE', *, *, #99, .T. ) ;
#62 = COORDINATED_UNIVERSAL_TIME_OFFSET ( 1, 0, .AHEAD. ) ;
#63 = DIRECTION ( 'NONE',  ( -3.491481338843133355E-15, 0.0000000000000000000, -1.000000000000000000 ) ) ;
#64 = CALENDAR_DATE ( 2021, 18, 11 ) ;
#65 = ORIENTED_EDGE ( 'NONE', *, *, #47, .T. ) ;
#66 = DIRECTION ( 'NONE',  ( -3.491481338843133355E-15, 1.224646799147353207E-16, -1.000000000000000000 ) ) ;
#67 = FACE_OUTER_BOUND ( 'NONE', #221, .T. ) ;
#68 = ADVANCED_FACE ( 'NONE', ( #67 ), #124, .F. ) ;
#69 = COORDINATED_UNIVERSAL_TIME_OFFSET ( 1, 0, .AHEAD. ) ;
#70 = CC_DESIGN_APPROVAL ( #225, ( #178 ) ) ;
#71 = CARTESIAN_POINT ( 'NONE',  ( 7.332110811570581308E-14, 3.999999999999998224, 21.00000000000000355 ) ) ;
#72 = AXIS2_PLACEMENT_3D ( 'NONE', #71, #63, #185 ) ;
#73 = FACE_OUTER_BOUND ( 'NONE', #104, .T. ) ;
#74 = CARTESIAN_POINT ( 'NONE',  ( 2.000000000000000000, 0.0000000000000000000, -8.067164850171771145E-15 ) ) ;
#75 = CC_DESIGN_DATE_AND_TIME_ASSIGNMENT ( #86, #184, ( #178 ) ) ;
#76 = DIRECTION ( 'NONE',  ( 3.491481338843133355E-15, -0.0000000000000000000, 1.000000000000000000 ) ) ;
#77 = DIRECTION ( 'NONE',  ( 4.275831445896959482E-31, 1.000000000000000000, 1.224646799147353207E-16 ) ) ;
#78 = FACE_OUTER_BOUND ( 'NONE', #27, .T. ) ;
#79 = LOCAL_TIME ( 11, 46, 7.000000000000000000, #2 ) ;
#80 = DIRECTION ( 'NONE',  ( 1.000000000000000000, 0.0000000000000000000, -3.491481338843133355E-15 ) ) ;
#81 = SECURITY_CLASSIFICATION ( '', '', #3 ) ;
#82 = CIRCLE ( 'NONE', #261, 2.000000000000000000 ) ;
#83 = CC_DESIGN_DATE_AND_TIME_ASSIGNMENT ( #116, #262, ( #81 ) ) ;
#84 = CC_DESIGN_APPROVAL ( #202, ( #17 ) ) ;
#85 = APPLICATION_PROTOCOL_DEFINITION ( 'international standard', 'config_control_design', 1994, #148 ) ;
#86 = DATE_AND_TIME ( #164, #144 ) ;
#87 = EDGE_LOOP ( 'NONE', ( #22 ) ) ;
#88 = DIRECTION ( 'NONE',  ( 4.275831445896958607E-31, 1.000000000000000000, 1.224646799147353207E-16 ) ) ;
#89 = AXIS2_PLACEMENT_3D ( 'NONE', #231, #76, #151 ) ;
#90 = DIRECTION ( 'NONE',  ( -3.491481338843133355E-15, 1.224646799147353207E-16, -1.000000000000000000 ) ) ;
#91 = ADVANCED_FACE ( 'NONE', ( #73, #12 ), #93, .T. ) ;
#92 = PRODUCT ( '339045', '339045', '', ( #115 ) ) ;
#93 = CYLINDRICAL_SURFACE ( 'NONE', #169, 2.999999999999999556 ) ;
#94 = CYLINDRICAL_SURFACE ( 'NONE', #214, 2.799999999999999822 ) ;
#95 = DIRECTION ( 'NONE',  ( -4.275831445896958607E-31, -1.000000000000000000, -1.224646799147353207E-16 ) ) ;
#96 = CARTESIAN_POINT ( 'NONE',  ( 0.0000000000000000000, 0.0000000000000000000, 0.0000000000000000000 ) ) ;
#97 = ORIENTED_EDGE ( 'NONE', *, *, #199, .T. ) ;
#98 = AXIS2_PLACEMENT_3D ( 'NONE', #195, #15, #95 ) ;
#99 = EDGE_CURVE ( 'NONE', #57, #57, #191, .T. ) ;
#100 = EDGE_LOOP ( 'NONE', ( #61 ) ) ;
#101 = AXIS2_PLACEMENT_3D ( 'NONE', #96, #255, #77 ) ;
#102 = PERSON_AND_ORGANIZATION ( #234, #128 ) ;
#103 = CIRCLE ( 'NONE', #134, 2.799999999999999822 ) ;
#104 = EDGE_LOOP ( 'NONE', ( #229 ) ) ;
#105 = PERSON_AND_ORGANIZATION_ROLE ( 'design_owner' ) ;
#106 = ORIENTED_EDGE ( 'NONE', *, *, #47, .F. ) ;
#107 = DIRECTION ( 'NONE',  ( -1.000000000000000000, 0.0000000000000000000, 3.469446951953614583E-15 ) ) ;
#108 = PLANE ( 'NONE',  #130 ) ;
#109 = CIRCLE ( 'NONE', #11, 3.000000000000000000 ) ;
#110 = FACE_OUTER_BOUND ( 'NONE', #117, .T. ) ;
#111 = PRODUCT_DEFINITION_SHAPE ( 'NONE', 'NONE',  #178 ) ;
#112 = DIRECTION ( 'NONE',  ( 0.0000000000000000000, 1.000000000000000000, 0.0000000000000000000 ) ) ;
#113 = VERTEX_POINT ( 'NONE', #155 ) ;
#114 = SHAPE_DEFINITION_REPRESENTATION ( #111, #194 ) ;
#115 = MECHANICAL_CONTEXT ( 'NONE', #222, 'mechanical' ) ;
#116 = DATE_AND_TIME ( #9, #163 ) ;
#117 = EDGE_LOOP ( 'NONE', ( #168 ) ) ;
#118 = PERSON_AND_ORGANIZATION ( #234, #128 ) ;
#119 = TOROIDAL_SURFACE ( 'NONE', #175, 2.000000000000000000, 0.9999999999999997780 ) ;
#120 = CARTESIAN_POINT ( 'NONE',  ( 1.990144363140586139E-13, 1.799711739194223382E-32, 57.00000000000000000 ) ) ;
#121 = COORDINATED_UNIVERSAL_TIME_OFFSET ( 1, 0, .AHEAD. ) ;
#122 = FACE_BOUND ( 'NONE', #46, .T. ) ;
#123 = DESIGN_CONTEXT ( 'detailed design', #148, 'design' ) ;
#124 = PLANE ( 'NONE',  #153 ) ;
#125 = DIRECTION ( 'NONE',  ( 1.000000000000000000, 0.0000000000000000000, -3.717264591378872796E-15 ) ) ;
#126 = CARTESIAN_POINT ( 'NONE',  ( -3.785471652766322976E-30, 0.0000000000000000000, -1.084202172485504434E-15 ) ) ;
#127 = DIRECTION ( 'NONE',  ( 1.000000000000000000, 0.0000000000000000000, -3.491481338843133750E-15 ) ) ;
#128 = ORGANIZATION ( 'UNSPECIFIED', 'UNSPECIFIED', '' ) ;
#129 = DIRECTION ( 'NONE',  ( -3.491481338843133355E-15, 1.224646799147353207E-16, -1.000000000000000000 ) ) ;
#130 = AXIS2_PLACEMENT_3D ( 'NONE', #120, #49, #162 ) ;
#131 = CARTESIAN_POINT ( 'NONE',  ( 2.800000000000073097, 0.0000000000000000000, 20.99999999999998934 ) ) ;
#132 = CARTESIAN_POINT ( 'NONE',  ( 3.000000000000003109, 0.0000000000000000000, 0.9999999999999883427 ) ) ;
#133 = VERTEX_POINT ( 'NONE', #209 ) ;
#134 = AXIS2_PLACEMENT_3D ( 'NONE', #165, #146, #125 ) ;
#135 = ORIENTED_EDGE ( 'NONE', *, *, #54, .T. ) ;
#136 =( GEOMETRIC_REPRESENTATION_CONTEXT ( 3 ) GLOBAL_UNCERTAINTY_ASSIGNED_CONTEXT ( ( #187 ) ) GLOBAL_UNIT_ASSIGNED_CONTEXT ( ( #196, #4, #241 ) ) REPRESENTATION_CONTEXT ( 'NONE', 'WORKASPACE' ) );
#137 = APPROVAL_DATE_TIME ( #242, #225 ) ;
#138 = CC_DESIGN_PERSON_AND_ORGANIZATION_ASSIGNMENT ( #118, #160, ( #17 ) ) ;
#139 = APPROVAL_DATE_TIME ( #213, #202 ) ;
#140 = EDGE_LOOP ( 'NONE', ( #30 ) ) ;
#141 = PERSON_AND_ORGANIZATION_ROLE ( 'classification_officer' ) ;
#142 = EDGE_LOOP ( 'NONE', ( #135 ) ) ;
#143 = CIRCLE ( 'NONE', #157, 2.400000000000006128 ) ;
#144 = LOCAL_TIME ( 11, 46, 7.000000000000000000, #218 ) ;
#145 = APPROVAL_ROLE ( '' ) ;
#146 = DIRECTION ( 'NONE',  ( 3.491481338843133355E-15, -0.0000000000000000000, 1.000000000000000000 ) ) ;
#147 = DIRECTION ( 'NONE',  ( 3.491481338843133355E-15, -1.224646799147353207E-16, 1.000000000000000000 ) ) ;
#148 = APPLICATION_CONTEXT ( 'configuration controlled 3d designs of mechanical parts and assemblies' ) ;
#149 = PLANE ( 'NONE',  #98 ) ;
#150 = VERTEX_POINT ( 'NONE', #131 ) ;
#151 = DIRECTION ( 'NONE',  ( 1.000000000000000000, 0.0000000000000000000, -3.717264591378872796E-15 ) ) ;
#152 = VERTEX_POINT ( 'NONE', #37 ) ;
#153 = AXIS2_PLACEMENT_3D ( 'NONE', #180, #147, #192 ) ;
#154 = CONICAL_SURFACE ( 'NONE', #238, 2.999999999999999112, 0.7853981633974453924 ) ;
#155 = CARTESIAN_POINT ( 'NONE',  ( 4.538925740496073362E-14, 2.999999999999998224, 13.00000000000000000 ) ) ;
#156 = CARTESIAN_POINT ( 'NONE',  ( -1.282749433769087757E-30, 0.0000000000000000000, -3.673940397442059868E-16 ) ) ;
#157 = AXIS2_PLACEMENT_3D ( 'NONE', #10, #129, #52 ) ;
#158 = DATE_AND_TIME ( #20, #79 ) ;
#159 = ORIENTED_EDGE ( 'NONE', *, *, #14, .T. ) ;
#160 = PERSON_AND_ORGANIZATION_ROLE ( 'creator' ) ;
#161 = DIRECTION ( 'NONE',  ( 3.491481338843133355E-15, -0.0000000000000000000, 1.000000000000000000 ) ) ;
#162 = DIRECTION ( 'NONE',  ( 4.275831445896958607E-31, 1.000000000000000000, 1.224646799147353207E-16 ) ) ;
#163 = LOCAL_TIME ( 11, 46, 7.000000000000000000, #69 ) ;
#164 = CALENDAR_DATE ( 2021, 18, 11 ) ;
#165 = CARTESIAN_POINT ( 'NONE',  ( 4.538925740496073362E-14, 0.0000000000000000000, 13.00000000000000000 ) ) ;
#166 = EDGE_CURVE ( 'NONE', #133, #133, #143, .T. ) ;
#167 = PLANE ( 'NONE',  #72 ) ;
#168 = ORIENTED_EDGE ( 'NONE', *, *, #181, .T. ) ;
#169 = AXIS2_PLACEMENT_3D ( 'NONE', #256, #172, #188 ) ;
#170 = DIRECTION ( 'NONE',  ( 3.491481338843133355E-15, -0.0000000000000000000, 1.000000000000000000 ) ) ;
#171 = DIRECTION ( 'NONE',  ( 0.0000000000000000000, 1.000000000000000000, 0.0000000000000000000 ) ) ;
#172 = DIRECTION ( 'NONE',  ( -3.491481338843133355E-15, 1.224646799147353207E-16, -1.000000000000000000 ) ) ;
#173 = DIRECTION ( 'NONE',  ( 1.000000000000000000, 0.0000000000000000000, -3.491481338843133355E-15 ) ) ;
#174 = CARTESIAN_POINT ( 'NONE',  ( 1.969195475107527465E-13, 2.999999999999992450, 56.40000000000000568 ) ) ;
#175 = AXIS2_PLACEMENT_3D ( 'NONE', #193, #51, #80 ) ;
#176 = CARTESIAN_POINT ( 'NONE',  ( 0.0000000000000000000, 0.0000000000000000000, 0.0000000000000000000 ) ) ;
#177 = CC_DESIGN_PERSON_AND_ORGANIZATION_ASSIGNMENT ( #200, #24, ( #17 ) ) ;
#178 = PRODUCT_DEFINITION ( 'UNKNOWN', '', #17, #123 ) ;
#179 = AXIS2_PLACEMENT_3D ( 'NONE', #176, #26, #263 ) ;
#180 = CARTESIAN_POINT ( 'NONE',  ( 4.538925740496073362E-14, 2.249639673992783675E-32, 13.00000000000000000 ) ) ;
#181 = EDGE_CURVE ( 'NONE', #235, #235, #82, .T. ) ;
#182 = MANIFOLD_SOLID_BREP ( 'Corps-Déplacer/Copier1[1]', #211 ) ;
#183 = EDGE_LOOP ( 'NONE', ( #48 ) ) ;
#184 = DATE_TIME_ROLE ( 'creation_date' ) ;
#185 = DIRECTION ( 'NONE',  ( -1.000000000000000000, 0.0000000000000000000, 3.491481338843133355E-15 ) ) ;
#186 = CARTESIAN_POINT ( 'NONE',  ( -6.413747168845438786E-31, 2.249639673992786412E-32, -1.836970198721029934E-16 ) ) ;
#187 = UNCERTAINTY_MEASURE_WITH_UNIT (LENGTH_MEASURE( 1.000000000000000082E-05 ), #196, 'distance_accuracy_value', 'NONE');
#188 = DIRECTION ( 'NONE',  ( 4.275831445896959482E-31, 1.000000000000000000, 1.224646799147353207E-16 ) ) ;
#189 = CIRCLE ( 'NONE', #42, 2.999999999999999112 ) ;
#190 = APPROVAL_PERSON_ORGANIZATION ( #215, #202, #145 ) ;
#191 = CIRCLE ( 'NONE', #53, 2.999999999999999556 ) ;
#192 = DIRECTION ( 'NONE',  ( -4.275831445896958607E-31, -1.000000000000000000, -1.224646799147353207E-16 ) ) ;
#193 = CARTESIAN_POINT ( 'NONE',  ( 3.491481338843129017E-15, 0.0000000000000000000, 0.9999999999999986677 ) ) ;
#194 = ADVANCED_BREP_SHAPE_REPRESENTATION ( '339045', ( #182, #6, #179 ), #136 ) ;
#195 = CARTESIAN_POINT ( 'NONE',  ( 4.538925740496073362E-14, 2.249639673992783675E-32, 13.00000000000000000 ) ) ;
#196 =( LENGTH_UNIT ( ) NAMED_UNIT ( * ) SI_UNIT ( .MILLI., .METRE. ) );
#197 = FACE_BOUND ( 'NONE', #5, .T. ) ;
#198 = APPROVAL_DATE_TIME ( #158, #16 ) ;
#199 = EDGE_CURVE ( 'NONE', #150, #150, #35, .T. ) ;
#200 = PERSON_AND_ORGANIZATION ( #234, #128 ) ;
#201 = PLANE ( 'NONE',  #220 ) ;
#202 = APPROVAL ( #60, 'UNSPECIFIED' ) ;
#203 = ORIENTED_EDGE ( 'NONE', *, *, #166, .F. ) ;
#204 = CARTESIAN_POINT ( 'NONE',  ( 1.969195475107527465E-13, -6.907007947191072769E-15, 56.40000000000000568 ) ) ;
#205 = EDGE_CURVE ( 'NONE', #233, #233, #189, .T. ) ;
#206 = DIRECTION ( 'NONE',  ( 1.000000000000000000, 0.0000000000000000000, -3.469446951953614583E-15 ) ) ;
#207 = PRODUCT_RELATED_PRODUCT_CATEGORY ( 'detail', '', ( #92 ) ) ;
#208 = FACE_OUTER_BOUND ( 'NONE', #31, .T. ) ;
#209 = CARTESIAN_POINT ( 'NONE',  ( 1.990144363140586139E-13, 2.399999999999999467, 57.00000000000000000 ) ) ;
#210 = CC_DESIGN_SECURITY_CLASSIFICATION ( #81, ( #17 ) ) ;
#211 = CLOSED_SHELL ( 'NONE', ( #91, #236, #28, #230, #38, #68 ) ) ;
#212 = APPROVAL_ROLE ( '' ) ;
#213 = DATE_AND_TIME ( #41, #227 ) ;
#214 = AXIS2_PLACEMENT_3D ( 'NONE', #156, #259, #127 ) ;
#215 = PERSON_AND_ORGANIZATION ( #234, #128 ) ;
#216 = PERSON_AND_ORGANIZATION ( #234, #128 ) ;
#217 = PERSON_AND_ORGANIZATION ( #234, #128 ) ;
#218 = COORDINATED_UNIVERSAL_TIME_OFFSET ( 1, 0, .AHEAD. ) ;
#219 = APPROVAL_PERSON_ORGANIZATION ( #216, #16, #212 ) ;
#220 = AXIS2_PLACEMENT_3D ( 'NONE', #186, #66, #88 ) ;
#221 = EDGE_LOOP ( 'NONE', ( #106 ) ) ;
#222 = APPLICATION_CONTEXT ( 'configuration controlled 3d designs of mechanical parts and assemblies' ) ;
#223 = FACE_OUTER_BOUND ( 'NONE', #87, .T. ) ;
#224 = ADVANCED_FACE ( 'NONE', ( #208 ), #149, .T. ) ;
#225 = APPROVAL ( #39, 'UNSPECIFIED' ) ;
#226 = FACE_OUTER_BOUND ( 'NONE', #250, .T. ) ;
#227 = LOCAL_TIME ( 11, 46, 7.000000000000000000, #62 ) ;
#228 = AXIS2_PLACEMENT_3D ( 'NONE', #45, #161, #107 ) ;
#229 = ORIENTED_EDGE ( 'NONE', *, *, #205, .T. ) ;
#230 = ADVANCED_FACE ( 'NONE', ( #33, #34 ), #94, .T. ) ;
#231 = CARTESIAN_POINT ( 'NONE',  ( 7.332110811570580046E-14, 0.0000000000000000000, 21.00000000000000000 ) ) ;
#232 = FACE_OUTER_BOUND ( 'NONE', #140, .T. ) ;
#233 = VERTEX_POINT ( 'NONE', #174 ) ;
#234 = PERSON ( 'UNSPECIFIED', 'UNSPECIFIED', 'UNSPECIFIED', ('UNSPECIFIED'), ('UNSPECIFIED'), ('UNSPECIFIED') ) ;
#235 = VERTEX_POINT ( 'NONE', #74 ) ;
#236 = ADVANCED_FACE ( 'NONE', ( #197, #78 ), #154, .T. ) ;
#237 = FACE_OUTER_BOUND ( 'NONE', #142, .T. ) ;
#238 = AXIS2_PLACEMENT_3D ( 'NONE', #18, #56, #171 ) ;
#239 = ADVANCED_FACE ( 'NONE', ( #110, #232 ), #119, .T. ) ;
#240 = APPROVAL_STATUS ( 'not_yet_approved' ) ;
#241 =( NAMED_UNIT ( * ) SI_UNIT ( $, .STERADIAN. ) SOLID_ANGLE_UNIT ( ) );
#242 = DATE_AND_TIME ( #64, #43 ) ;
#243 = ORIENTED_EDGE ( 'NONE', *, *, #166, .T. ) ;
#244 = PERSON_AND_ORGANIZATION ( #234, #128 ) ;
#245 = ORIENTED_EDGE ( 'NONE', *, *, #14, .F. ) ;
#246 = APPLICATION_PROTOCOL_DEFINITION ( 'international standard', 'config_control_design', 1994, #222 ) ;
#247 = FACE_OUTER_BOUND ( 'NONE', #40, .T. ) ;
#248 = CLOSED_SHELL ( 'NONE', ( #260, #224, #239, #44 ) ) ;
#249 = DIRECTION ( 'NONE',  ( 0.0000000000000000000, 1.000000000000000000, 0.0000000000000000000 ) ) ;
#250 = EDGE_LOOP ( 'NONE', ( #203 ) ) ;
#251 = APPROVAL_PERSON_ORGANIZATION ( #217, #225, #21 ) ;
#252 = DIRECTION ( 'NONE',  ( -3.491481338843133355E-15, 1.224646799147353207E-16, -1.000000000000000000 ) ) ;
#253 = CARTESIAN_POINT ( 'NONE',  ( 2.800000000000045564, 0.0000000000000000000, 12.99999999999998934 ) ) ;
#254 = DIRECTION ( 'NONE',  ( 3.491481338843133355E-15, -0.0000000000000000000, 1.000000000000000000 ) ) ;
#255 = DIRECTION ( 'NONE',  ( -3.491481338843133355E-15, 1.224646799147353207E-16, -1.000000000000000000 ) ) ;
#256 = CARTESIAN_POINT ( 'NONE',  ( 0.0000000000000000000, 0.0000000000000000000, 0.0000000000000000000 ) ) ;
#257 = VERTEX_POINT ( 'NONE', #253 ) ;
#258 = CIRCLE ( 'NONE', #228, 2.999999999999999556 ) ;
#259 = DIRECTION ( 'NONE',  ( 3.491481338843133355E-15, -0.0000000000000000000, 1.000000000000000000 ) ) ;
#260 = ADVANCED_FACE ( 'NONE', ( #36, #237 ), #13, .T. ) ;
#261 = AXIS2_PLACEMENT_3D ( 'NONE', #126, #170, #173 ) ;
#262 = DATE_TIME_ROLE ( 'classification_date' ) ;
#263 = DIRECTION ( 'NONE',  ( 1.000000000000000000, 0.0000000000000000000, 0.0000000000000000000 ) ) ;
ENDSEC;
END-ISO-10303-21;
