ISO-10303-21;
HEADER;
FILE_DESCRIPTION (( 'STEP AP203' ),
    '1' );
FILE_NAME ('339044.step',
    '2021-11-18T10:46:06',
    ( '' ),
    ( '' ),
    'SwSTEP 2.0',
    'SolidWorks 2019',
    '' );
FILE_SCHEMA (( 'CONFIG_CONTROL_DESIGN' ));
ENDSEC;

DATA;
#1 = VERTEX_POINT ( 'NONE', #4 ) ;
#2 = PERSON_AND_ORGANIZATION_ROLE ( 'design_supplier' ) ;
#3 = AXIS2_PLACEMENT_3D ( 'NONE', #118, #116, #154 ) ;
#4 = CARTESIAN_POINT ( 'NONE',  ( 3.000000000000001776, 0.0000000000000000000, 0.4999999999999882871 ) ) ;
#5 = CARTESIAN_POINT ( 'NONE',  ( 2.800000000000073097, 0.0000000000000000000, 20.99999999999998934 ) ) ;
#6 = CARTESIAN_POINT ( 'NONE',  ( 1.990144363140586139E-13, -6.980486755139912911E-15, 57.00000000000000000 ) ) ;
#7 = VERTEX_POINT ( 'NONE', #27 ) ;
#8 = CC_DESIGN_PERSON_AND_ORGANIZATION_ASSIGNMENT ( #168, #207, ( #57 ) ) ;
#9 = CARTESIAN_POINT ( 'NONE',  ( 7.332110811570581308E-14, -2.571758278209442056E-15, 21.00000000000000355 ) ) ;
#10 = DATE_AND_TIME ( #75, #189 ) ;
#11 = PLANE ( 'NONE',  #59 ) ;
#12 = AXIS2_PLACEMENT_3D ( 'NONE', #260, #232, #203 ) ;
#13 = ORIENTED_EDGE ( 'NONE', *, *, #217, .F. ) ;
#14 = ADVANCED_FACE ( 'NONE', ( #60, #17 ), #58, .T. ) ;
#15 = ADVANCED_FACE ( 'NONE', ( #98, #18 ), #178, .T. ) ;
#16 = DIRECTION ( 'NONE',  ( 4.275831445896959482E-31, 1.000000000000000000, 1.224646799147353207E-16 ) ) ;
#17 = FACE_BOUND ( 'NONE', #190, .T. ) ;
#18 = FACE_OUTER_BOUND ( 'NONE', #255, .T. ) ;
#19 = FACE_OUTER_BOUND ( 'NONE', #111, .T. ) ;
#20 = CALENDAR_DATE ( 2021, 18, 11 ) ;
#21 = PERSON_AND_ORGANIZATION ( #80, #221 ) ;
#22 = APPROVAL_ROLE ( '' ) ;
#23 = APPROVAL ( #228, 'UNSPECIFIED' ) ;
#24 = COORDINATED_UNIVERSAL_TIME_OFFSET ( 1, 0, .AHEAD. ) ;
#25 = AXIS2_PLACEMENT_3D ( 'NONE', #166, #131, #208 ) ;
#26 = CARTESIAN_POINT ( 'NONE',  ( 4.538925740496073362E-14, 0.0000000000000000000, 13.00000000000000000 ) ) ;
#27 = CARTESIAN_POINT ( 'NONE',  ( 1.990144363140586139E-13, 2.399999999999999467, 57.00000000000000000 ) ) ;
#28 = ADVANCED_FACE ( 'NONE', ( #35 ), #99, .F. ) ;
#29 = EDGE_CURVE ( 'NONE', #53, #53, #175, .T. ) ;
#30 = DIRECTION ( 'NONE',  ( 4.275831445896958607E-31, 1.000000000000000000, 1.224646799147353207E-16 ) ) ;
#31 = ORIENTED_EDGE ( 'NONE', *, *, #238, .F. ) ;
#32 = ADVANCED_FACE ( 'NONE', ( #132 ), #215, .F. ) ;
#33 = MANIFOLD_SOLID_BREP ( 'Corps-Déplacer/Copier1[1]', #170 ) ;
#34 = AXIS2_PLACEMENT_3D ( 'NONE', #263, #243, #129 ) ;
#35 = FACE_OUTER_BOUND ( 'NONE', #218, .T. ) ;
#36 = EDGE_CURVE ( 'NONE', #7, #7, #220, .T. ) ;
#37 = EDGE_LOOP ( 'NONE', ( #212 ) ) ;
#38 = DIRECTION ( 'NONE',  ( 0.0000000000000000000, 1.000000000000000000, 0.0000000000000000000 ) ) ;
#39 = LOCAL_TIME ( 11, 46, 6.000000000000000000, #244 ) ;
#40 = DATE_AND_TIME ( #66, #39 ) ;
#41 = CC_DESIGN_DATE_AND_TIME_ASSIGNMENT ( #10, #177, ( #57 ) ) ;
#42 = DIRECTION ( 'NONE',  ( 1.000000000000000000, 0.0000000000000000000, 0.0000000000000000000 ) ) ;
#43 = CARTESIAN_POINT ( 'NONE',  ( 1.745740669421562536E-15, 0.0000000000000000000, 0.4999999999999988343 ) ) ;
#44 = CALENDAR_DATE ( 2021, 18, 11 ) ;
#45 = DIRECTION ( 'NONE',  ( -3.491481338843133355E-15, 1.224646799147353207E-16, -1.000000000000000000 ) ) ;
#46 = APPROVAL_DATE_TIME ( #40, #23 ) ;
#47 = LOCAL_TIME ( 11, 46, 6.000000000000000000, #64 ) ;
#48 = DIRECTION ( 'NONE',  ( 1.000000000000000000, 0.0000000000000000000, -3.491481338843133355E-15 ) ) ;
#49 = EDGE_LOOP ( 'NONE', ( #76 ) ) ;
#50 = EDGE_CURVE ( 'NONE', #110, #110, #171, .T. ) ;
#51 = FACE_OUTER_BOUND ( 'NONE', #157, .T. ) ;
#52 = ORIENTED_EDGE ( 'NONE', *, *, #149, .F. ) ;
#53 = VERTEX_POINT ( 'NONE', #63 ) ;
#54 = PLANE ( 'NONE',  #229 ) ;
#55 = DIRECTION ( 'NONE',  ( -1.000000000000000000, 0.0000000000000000000, 3.469446951953614583E-15 ) ) ;
#56 = ORIENTED_EDGE ( 'NONE', *, *, #242, .T. ) ;
#57 = PRODUCT_DEFINITION ( 'UNKNOWN', '', #210, #191 ) ;
#58 = PLANE ( 'NONE',  #179 ) ;
#59 = AXIS2_PLACEMENT_3D ( 'NONE', #92, #211, #30 ) ;
#60 = FACE_OUTER_BOUND ( 'NONE', #115, .T. ) ;
#61 = PERSON_AND_ORGANIZATION_ROLE ( 'creator' ) ;
#62 = DIRECTION ( 'NONE',  ( -3.491481338843133355E-15, 1.224646799147353207E-16, -1.000000000000000000 ) ) ;
#63 = CARTESIAN_POINT ( 'NONE',  ( 2.500000000000000000, 0.0000000000000000000, -9.921325736841888266E-15 ) ) ;
#64 = COORDINATED_UNIVERSAL_TIME_OFFSET ( 1, 0, .AHEAD. ) ;
#65 = PERSON_AND_ORGANIZATION_ROLE ( 'design_owner' ) ;
#66 = CALENDAR_DATE ( 2021, 18, 11 ) ;
#67 =( NAMED_UNIT ( * ) PLANE_ANGLE_UNIT ( ) SI_UNIT ( $, .RADIAN. ) );
#68 = APPLICATION_CONTEXT ( 'configuration controlled 3d designs of mechanical parts and assemblies' ) ;
#69 =( NAMED_UNIT ( * ) SI_UNIT ( $, .STERADIAN. ) SOLID_ANGLE_UNIT ( ) );
#70 = FACE_OUTER_BOUND ( 'NONE', #173, .T. ) ;
#71 = AXIS2_PLACEMENT_3D ( 'NONE', #225, #198, #16 ) ;
#72 = ORIENTED_EDGE ( 'NONE', *, *, #217, .T. ) ;
#73 = VERTEX_POINT ( 'NONE', #169 ) ;
#74 = CC_DESIGN_PERSON_AND_ORGANIZATION_ASSIGNMENT ( #145, #2, ( #210 ) ) ;
#75 = CALENDAR_DATE ( 2021, 18, 11 ) ;
#76 = ORIENTED_EDGE ( 'NONE', *, *, #36, .T. ) ;
#77 = DIRECTION ( 'NONE',  ( -4.275831445896958607E-31, -1.000000000000000000, -1.224646799147353207E-16 ) ) ;
#78 = ADVANCED_FACE ( 'NONE', ( #89 ), #54, .T. ) ;
#79 = SECURITY_CLASSIFICATION ( '', '', #261 ) ;
#80 = PERSON ( 'UNSPECIFIED', 'UNSPECIFIED', 'UNSPECIFIED', ('UNSPECIFIED'), ('UNSPECIFIED'), ('UNSPECIFIED') ) ;
#81 = DIRECTION ( 'NONE',  ( -3.491481338843133355E-15, 0.0000000000000000000, -1.000000000000000000 ) ) ;
#82 = APPROVAL_PERSON_ORGANIZATION ( #102, #23, #249 ) ;
#83 = ADVANCED_FACE ( 'NONE', ( #70, #153 ), #194, .T. ) ;
#84 = CALENDAR_DATE ( 2021, 18, 11 ) ;
#85 = PERSON_AND_ORGANIZATION ( #80, #221 ) ;
#86 = CARTESIAN_POINT ( 'NONE',  ( 4.538925740496073362E-14, 2.999999999999998224, 13.00000000000000000 ) ) ;
#87 = FACE_OUTER_BOUND ( 'NONE', #97, .T. ) ;
#88 = CARTESIAN_POINT ( 'NONE',  ( 1.969195475107527465E-13, -6.907007947191072769E-15, 56.40000000000000568 ) ) ;
#89 = FACE_OUTER_BOUND ( 'NONE', #133, .T. ) ;
#90 = CARTESIAN_POINT ( 'NONE',  ( 4.538925740496073362E-14, 2.249639673992783675E-32, 13.00000000000000000 ) ) ;
#91 = CARTESIAN_POINT ( 'NONE',  ( -1.282749433769087757E-30, 0.0000000000000000000, -3.673940397442059868E-16 ) ) ;
#92 = CARTESIAN_POINT ( 'NONE',  ( -6.413747168845438786E-31, 2.249639673992786412E-32, -1.836970198721029934E-16 ) ) ;
#93 = AXIS2_PLACEMENT_3D ( 'NONE', #90, #158, #77 ) ;
#94 = CC_DESIGN_APPROVAL ( #165, ( #57 ) ) ;
#95 = ADVANCED_FACE ( 'NONE', ( #96, #216 ), #123, .T. ) ;
#96 = FACE_OUTER_BOUND ( 'NONE', #136, .T. ) ;
#97 = EDGE_LOOP ( 'NONE', ( #31 ) ) ;
#98 = FACE_OUTER_BOUND ( 'NONE', #222, .T. ) ;
#99 = PLANE ( 'NONE',  #246 ) ;
#100 = CIRCLE ( 'NONE', #224, 2.999999999999999112 ) ;
#101 = DIRECTION ( 'NONE',  ( 4.275831445896958607E-31, 1.000000000000000000, 1.224646799147353207E-16 ) ) ;
#102 = PERSON_AND_ORGANIZATION ( #80, #221 ) ;
#103 = AXIS2_PLACEMENT_3D ( 'NONE', #6, #113, #172 ) ;
#104 = EDGE_CURVE ( 'NONE', #1, #1, #233, .T. ) ;
#105 = COORDINATED_UNIVERSAL_TIME_OFFSET ( 1, 0, .AHEAD. ) ;
#106 = FACE_BOUND ( 'NONE', #49, .T. ) ;
#107 = DATE_AND_TIME ( #44, #195 ) ;
#108 =( GEOMETRIC_REPRESENTATION_CONTEXT ( 3 ) GLOBAL_UNCERTAINTY_ASSIGNED_CONTEXT ( ( #134 ) ) GLOBAL_UNIT_ASSIGNED_CONTEXT ( ( #187, #67, #69 ) ) REPRESENTATION_CONTEXT ( 'NONE', 'WORKASPACE' ) );
#109 = DIRECTION ( 'NONE',  ( 1.000000000000000000, 0.0000000000000000000, -3.717264591378872796E-15 ) ) ;
#110 = VERTEX_POINT ( 'NONE', #5 ) ;
#111 = EDGE_LOOP ( 'NONE', ( #197 ) ) ;
#112 = ADVANCED_BREP_SHAPE_REPRESENTATION ( '339044', ( #33, #125, #135 ), #108 ) ;
#113 = DIRECTION ( 'NONE',  ( -3.491481338843133355E-15, 1.224646799147353207E-16, -1.000000000000000000 ) ) ;
#114 = APPROVAL_PERSON_ORGANIZATION ( #85, #165, #22 ) ;
#115 = EDGE_LOOP ( 'NONE', ( #117 ) ) ;
#116 = DIRECTION ( 'NONE',  ( 3.491481338843133355E-15, -0.0000000000000000000, 1.000000000000000000 ) ) ;
#117 = ORIENTED_EDGE ( 'NONE', *, *, #242, .F. ) ;
#118 = CARTESIAN_POINT ( 'NONE',  ( 7.332110811570580046E-14, 0.0000000000000000000, 21.00000000000000000 ) ) ;
#119 = DIRECTION ( 'NONE',  ( 3.491481338843133355E-15, -0.0000000000000000000, 1.000000000000000000 ) ) ;
#120 = CC_DESIGN_APPROVAL ( #23, ( #79 ) ) ;
#121 = EDGE_LOOP ( 'NONE', ( #56 ) ) ;
#122 = CARTESIAN_POINT ( 'NONE',  ( -4.164018818042955203E-30, 0.0000000000000000000, -1.192622389734054877E-15 ) ) ;
#123 = TOROIDAL_SURFACE ( 'NONE', #253, 2.500000000000000000, 0.5000000000000000000 ) ;
#124 = COORDINATED_UNIVERSAL_TIME_OFFSET ( 1, 0, .AHEAD. ) ;
#125 = MANIFOLD_SOLID_BREP ( 'Corps-Déplacer/Copier1[2]', #141 ) ;
#126 = CARTESIAN_POINT ( 'NONE',  ( 0.0000000000000000000, 0.0000000000000000000, 0.0000000000000000000 ) ) ;
#127 = DIRECTION ( 'NONE',  ( 3.491481338843133355E-15, -0.0000000000000000000, 1.000000000000000000 ) ) ;
#128 = APPROVAL_STATUS ( 'not_yet_approved' ) ;
#129 = DIRECTION ( 'NONE',  ( 0.0000000000000000000, 1.000000000000000000, 0.0000000000000000000 ) ) ;
#130 = APPROVAL_DATE_TIME ( #107, #165 ) ;
#131 = DIRECTION ( 'NONE',  ( -3.491481338843133355E-15, 1.224646799147353207E-16, -1.000000000000000000 ) ) ;
#132 = FACE_OUTER_BOUND ( 'NONE', #256, .T. ) ;
#133 = EDGE_LOOP ( 'NONE', ( #52 ) ) ;
#134 = UNCERTAINTY_MEASURE_WITH_UNIT (LENGTH_MEASURE( 1.000000000000000082E-05 ), #187, 'distance_accuracy_value', 'NONE');
#135 = AXIS2_PLACEMENT_3D ( 'NONE', #126, #184, #42 ) ;
#136 = EDGE_LOOP ( 'NONE', ( #192 ) ) ;
#137 = CARTESIAN_POINT ( 'NONE',  ( 4.538925740496073362E-14, 2.249639673992783675E-32, 13.00000000000000000 ) ) ;
#138 = PRODUCT_DEFINITION_SHAPE ( 'NONE', 'NONE',  #57 ) ;
#139 = ORIENTED_EDGE ( 'NONE', *, *, #29, .F. ) ;
#140 = CARTESIAN_POINT ( 'NONE',  ( 7.332110811570581308E-14, 3.999999999999998224, 21.00000000000000355 ) ) ;
#141 = CLOSED_SHELL ( 'NONE', ( #15, #78, #95, #250 ) ) ;
#142 = CONICAL_SURFACE ( 'NONE', #257, 2.999999999999999112, 0.7853981633974453924 ) ;
#143 = DIRECTION ( 'NONE',  ( -1.000000000000000000, 0.0000000000000000000, 3.491481338843133355E-15 ) ) ;
#144 = CC_DESIGN_PERSON_AND_ORGANIZATION_ASSIGNMENT ( #164, #167, ( #79 ) ) ;
#145 = PERSON_AND_ORGANIZATION ( #80, #221 ) ;
#146 = FACE_OUTER_BOUND ( 'NONE', #121, .T. ) ;
#147 = DATE_AND_TIME ( #20, #47 ) ;
#148 = CC_DESIGN_APPROVAL ( #205, ( #210 ) ) ;
#149 = EDGE_CURVE ( 'NONE', #180, #180, #176, .T. ) ;
#150 = APPLICATION_PROTOCOL_DEFINITION ( 'international standard', 'config_control_design', 1994, #182 ) ;
#151 = SHAPE_DEFINITION_REPRESENTATION ( #138, #112 ) ;
#152 = AXIS2_PLACEMENT_3D ( 'NONE', #26, #127, #109 ) ;
#153 = FACE_OUTER_BOUND ( 'NONE', #37, .T. ) ;
#154 = DIRECTION ( 'NONE',  ( 1.000000000000000000, 0.0000000000000000000, -3.717264591378872796E-15 ) ) ;
#155 = ORIENTED_EDGE ( 'NONE', *, *, #149, .T. ) ;
#156 = DIRECTION ( 'NONE',  ( -4.275831445896958607E-31, -1.000000000000000000, -1.224646799147353207E-16 ) ) ;
#157 = EDGE_LOOP ( 'NONE', ( #139 ) ) ;
#158 = DIRECTION ( 'NONE',  ( 3.491481338843133355E-15, -1.224646799147353207E-16, 1.000000000000000000 ) ) ;
#159 = APPROVAL_STATUS ( 'not_yet_approved' ) ;
#160 = CC_DESIGN_DATE_AND_TIME_ASSIGNMENT ( #147, #226, ( #79 ) ) ;
#161 = DIRECTION ( 'NONE',  ( -3.491481338843133355E-15, 1.224646799147353207E-16, -1.000000000000000000 ) ) ;
#162 = DATE_AND_TIME ( #84, #163 ) ;
#163 = LOCAL_TIME ( 11, 46, 6.000000000000000000, #124 ) ;
#164 = PERSON_AND_ORGANIZATION ( #80, #221 ) ;
#165 = APPROVAL ( #128, 'UNSPECIFIED' ) ;
#166 = CARTESIAN_POINT ( 'NONE',  ( 0.0000000000000000000, 0.0000000000000000000, 0.0000000000000000000 ) ) ;
#167 = PERSON_AND_ORGANIZATION_ROLE ( 'classification_officer' ) ;
#168 = PERSON_AND_ORGANIZATION ( #80, #221 ) ;
#169 = CARTESIAN_POINT ( 'NONE',  ( 1.969195475107527465E-13, 2.999999999999992450, 56.40000000000000568 ) ) ;
#170 = CLOSED_SHELL ( 'NONE', ( #186, #174, #28, #83, #14, #32 ) ) ;
#171 = CIRCLE ( 'NONE', #3, 2.799999999999999822 ) ;
#172 = DIRECTION ( 'NONE',  ( 0.0000000000000000000, 1.000000000000000000, 0.0000000000000000000 ) ) ;
#173 = EDGE_LOOP ( 'NONE', ( #72 ) ) ;
#174 = ADVANCED_FACE ( 'NONE', ( #106, #87 ), #142, .T. ) ;
#175 = CIRCLE ( 'NONE', #209, 2.500000000000000000 ) ;
#176 = CIRCLE ( 'NONE', #34, 3.000000000000000000 ) ;
#177 = DATE_TIME_ROLE ( 'creation_date' ) ;
#178 = CYLINDRICAL_SURFACE ( 'NONE', #71, 3.000000000000000000 ) ;
#179 = AXIS2_PLACEMENT_3D ( 'NONE', #140, #81, #143 ) ;
#180 = VERTEX_POINT ( 'NONE', #86 ) ;
#181 = CC_DESIGN_PERSON_AND_ORGANIZATION_ASSIGNMENT ( #231, #61, ( #210 ) ) ;
#182 = APPLICATION_CONTEXT ( 'configuration controlled 3d designs of mechanical parts and assemblies' ) ;
#183 = VERTEX_POINT ( 'NONE', #262 ) ;
#184 = DIRECTION ( 'NONE',  ( 0.0000000000000000000, 0.0000000000000000000, 1.000000000000000000 ) ) ;
#185 = DIRECTION ( 'NONE',  ( 0.0000000000000000000, 1.000000000000000000, 0.0000000000000000000 ) ) ;
#186 = ADVANCED_FACE ( 'NONE', ( #19, #146 ), #227, .T. ) ;
#187 =( LENGTH_UNIT ( ) NAMED_UNIT ( * ) SI_UNIT ( .MILLI., .METRE. ) );
#188 = ORIENTED_EDGE ( 'NONE', *, *, #104, .T. ) ;
#189 = LOCAL_TIME ( 11, 46, 6.000000000000000000, #24 ) ;
#190 = EDGE_LOOP ( 'NONE', ( #235 ) ) ;
#191 = DESIGN_CONTEXT ( 'detailed design', #182, 'design' ) ;
#192 = ORIENTED_EDGE ( 'NONE', *, *, #29, .T. ) ;
#193 = PRODUCT_RELATED_PRODUCT_CATEGORY ( 'detail', '', ( #199 ) ) ;
#194 = CYLINDRICAL_SURFACE ( 'NONE', #239, 2.799999999999999822 ) ;
#195 = LOCAL_TIME ( 11, 46, 6.000000000000000000, #105 ) ;
#196 = EDGE_LOOP ( 'NONE', ( #214 ) ) ;
#197 = ORIENTED_EDGE ( 'NONE', *, *, #238, .T. ) ;
#198 = DIRECTION ( 'NONE',  ( -3.491481338843133355E-15, 1.224646799147353207E-16, -1.000000000000000000 ) ) ;
#199 = PRODUCT ( '339044', '339044', '', ( #248 ) ) ;
#200 = DIRECTION ( 'NONE',  ( 1.000000000000000000, 0.0000000000000000000, -3.491481338843133355E-15 ) ) ;
#201 = CARTESIAN_POINT ( 'NONE',  ( 1.969195475107527465E-13, -6.907007947191072769E-15, 56.40000000000000568 ) ) ;
#202 = APPROVAL_ROLE ( '' ) ;
#203 = DIRECTION ( 'NONE',  ( 1.000000000000000000, 0.0000000000000000000, -3.505587024369797538E-15 ) ) ;
#204 = APPROVAL_DATE_TIME ( #162, #205 ) ;
#205 = APPROVAL ( #159, 'UNSPECIFIED' ) ;
#206 = APPLICATION_PROTOCOL_DEFINITION ( 'international standard', 'config_control_design', 1994, #68 ) ;
#207 = PERSON_AND_ORGANIZATION_ROLE ( 'creator' ) ;
#208 = DIRECTION ( 'NONE',  ( 4.275831445896959482E-31, 1.000000000000000000, 1.224646799147353207E-16 ) ) ;
#209 = AXIS2_PLACEMENT_3D ( 'NONE', #122, #240, #200 ) ;
#210 = PRODUCT_DEFINITION_FORMATION_WITH_SPECIFIED_SOURCE ( 'ANY', '', #199, .NOT_KNOWN. ) ;
#211 = DIRECTION ( 'NONE',  ( -3.491481338843133355E-15, 1.224646799147353207E-16, -1.000000000000000000 ) ) ;
#212 = ORIENTED_EDGE ( 'NONE', *, *, #50, .F. ) ;
#213 = CC_DESIGN_PERSON_AND_ORGANIZATION_ASSIGNMENT ( #21, #65, ( #199 ) ) ;
#214 = ORIENTED_EDGE ( 'NONE', *, *, #104, .F. ) ;
#215 = PLANE ( 'NONE',  #93 ) ;
#216 = FACE_OUTER_BOUND ( 'NONE', #196, .T. ) ;
#217 = EDGE_CURVE ( 'NONE', #230, #230, #223, .T. ) ;
#218 = EDGE_LOOP ( 'NONE', ( #252 ) ) ;
#219 = PERSON_AND_ORGANIZATION ( #80, #221 ) ;
#220 = CIRCLE ( 'NONE', #103, 2.400000000000006128 ) ;
#221 = ORGANIZATION ( 'UNSPECIFIED', 'UNSPECIFIED', '' ) ;
#222 = EDGE_LOOP ( 'NONE', ( #188 ) ) ;
#223 = CIRCLE ( 'NONE', #152, 2.799999999999999822 ) ;
#224 = AXIS2_PLACEMENT_3D ( 'NONE', #88, #62, #38 ) ;
#225 = CARTESIAN_POINT ( 'NONE',  ( 0.0000000000000000000, 0.0000000000000000000, 0.0000000000000000000 ) ) ;
#226 = DATE_TIME_ROLE ( 'classification_date' ) ;
#227 = CYLINDRICAL_SURFACE ( 'NONE', #25, 2.999999999999999556 ) ;
#228 = APPROVAL_STATUS ( 'not_yet_approved' ) ;
#229 = AXIS2_PLACEMENT_3D ( 'NONE', #137, #254, #156 ) ;
#230 = VERTEX_POINT ( 'NONE', #251 ) ;
#231 = PERSON_AND_ORGANIZATION ( #80, #221 ) ;
#232 = DIRECTION ( 'NONE',  ( 3.491481338843133355E-15, -0.0000000000000000000, 1.000000000000000000 ) ) ;
#233 = CIRCLE ( 'NONE', #12, 3.000000000000000000 ) ;
#234 = DIRECTION ( 'NONE',  ( 1.000000000000000000, 0.0000000000000000000, -3.491481338843133750E-15 ) ) ;
#235 = ORIENTED_EDGE ( 'NONE', *, *, #50, .T. ) ;
#236 = DIRECTION ( 'NONE',  ( 3.491481338843133355E-15, -0.0000000000000000000, 1.000000000000000000 ) ) ;
#237 = AXIS2_PLACEMENT_3D ( 'NONE', #9, #119, #55 ) ;
#238 = EDGE_CURVE ( 'NONE', #73, #73, #100, .T. ) ;
#239 = AXIS2_PLACEMENT_3D ( 'NONE', #91, #236, #234 ) ;
#240 = DIRECTION ( 'NONE',  ( 3.491481338843133355E-15, -0.0000000000000000000, 1.000000000000000000 ) ) ;
#241 = APPROVAL_PERSON_ORGANIZATION ( #219, #205, #202 ) ;
#242 = EDGE_CURVE ( 'NONE', #183, #183, #247, .T. ) ;
#243 = DIRECTION ( 'NONE',  ( -3.491481338843133355E-15, 1.224646799147353207E-16, -1.000000000000000000 ) ) ;
#244 = COORDINATED_UNIVERSAL_TIME_OFFSET ( 1, 0, .AHEAD. ) ;
#245 = DIRECTION ( 'NONE',  ( 3.491481338843133355E-15, -0.0000000000000000000, 1.000000000000000000 ) ) ;
#246 = AXIS2_PLACEMENT_3D ( 'NONE', #258, #161, #101 ) ;
#247 = CIRCLE ( 'NONE', #237, 2.999999999999999556 ) ;
#248 = MECHANICAL_CONTEXT ( 'NONE', #68, 'mechanical' ) ;
#249 = APPROVAL_ROLE ( '' ) ;
#250 = ADVANCED_FACE ( 'NONE', ( #51 ), #11, .T. ) ;
#251 = CARTESIAN_POINT ( 'NONE',  ( 2.800000000000045564, 0.0000000000000000000, 12.99999999999998934 ) ) ;
#252 = ORIENTED_EDGE ( 'NONE', *, *, #36, .F. ) ;
#253 = AXIS2_PLACEMENT_3D ( 'NONE', #43, #245, #48 ) ;
#254 = DIRECTION ( 'NONE',  ( 3.491481338843133355E-15, -1.224646799147353207E-16, 1.000000000000000000 ) ) ;
#255 = EDGE_LOOP ( 'NONE', ( #155 ) ) ;
#256 = EDGE_LOOP ( 'NONE', ( #13 ) ) ;
#257 = AXIS2_PLACEMENT_3D ( 'NONE', #201, #45, #185 ) ;
#258 = CARTESIAN_POINT ( 'NONE',  ( 1.990144363140586139E-13, 1.799711739194223382E-32, 57.00000000000000000 ) ) ;
#259 = CC_DESIGN_SECURITY_CLASSIFICATION ( #79, ( #210 ) ) ;
#260 = CARTESIAN_POINT ( 'NONE',  ( 1.745740669421562536E-15, 0.0000000000000000000, 0.4999999999999988343 ) ) ;
#261 = SECURITY_CLASSIFICATION_LEVEL ( 'unclassified' ) ;
#262 = CARTESIAN_POINT ( 'NONE',  ( -2.999999999999926281, -2.571758278209442056E-15, 21.00000000000001421 ) ) ;
#263 = CARTESIAN_POINT ( 'NONE',  ( 4.538925740496073362E-14, -1.592040838891559095E-15, 13.00000000000000000 ) ) ;
ENDSEC;
END-ISO-10303-21;
