ISO-10303-21;
HEADER;
FILE_DESCRIPTION (( 'STEP AP203' ),
    '1' );
FILE_NAME ('339043.step',
    '2021-11-18T10:46:06',
    ( '' ),
    ( '' ),
    'SwSTEP 2.0',
    'SolidWorks 2019',
    '' );
FILE_SCHEMA (( 'CONFIG_CONTROL_DESIGN' ));
ENDSEC;

DATA;
#1 = APPROVAL_STATUS ( 'not_yet_approved' ) ;
#2 = DIRECTION ( 'NONE',  ( -3.491481338843133355E-15, 1.224646799147353207E-16, -1.000000000000000000 ) ) ;
#3 = DATE_AND_TIME ( #179, #45 ) ;
#4 = FACE_BOUND ( 'NONE', #172, .T. ) ;
#5 = DIRECTION ( 'NONE',  ( 1.000000000000000000, 0.0000000000000000000, -3.469446951953614189E-15 ) ) ;
#6 = EDGE_CURVE ( 'NONE', #217, #217, #32, .T. ) ;
#7 = PERSON_AND_ORGANIZATION ( #129, #243 ) ;
#8 = EDGE_LOOP ( 'NONE', ( #38 ) ) ;
#9 = PERSON_AND_ORGANIZATION_ROLE ( 'classification_officer' ) ;
#10 = ADVANCED_FACE ( 'NONE', ( #85 ), #210, .F. ) ;
#11 = ORIENTED_EDGE ( 'NONE', *, *, #94, .F. ) ;
#12 = FACE_OUTER_BOUND ( 'NONE', #215, .T. ) ;
#13 = CC_DESIGN_DATE_AND_TIME_ASSIGNMENT ( #3, #158, ( #163 ) ) ;
#14 = EDGE_CURVE ( 'NONE', #263, #263, #204, .T. ) ;
#15 = CC_DESIGN_APPROVAL ( #159, ( #163 ) ) ;
#16 = PRODUCT_DEFINITION ( 'UNKNOWN', '', #151, #173 ) ;
#17 = UNCERTAINTY_MEASURE_WITH_UNIT (LENGTH_MEASURE( 1.000000000000000082E-05 ), #99, 'distance_accuracy_value', 'NONE');
#18 = EDGE_LOOP ( 'NONE', ( #69 ) ) ;
#19 = DATE_AND_TIME ( #157, #92 ) ;
#20 = CARTESIAN_POINT ( 'NONE',  ( 1.976178437785213353E-13, 1.999999999999988010, 56.59999999999999432 ) ) ;
#21 = APPROVAL_STATUS ( 'not_yet_approved' ) ;
#22 = FACE_OUTER_BOUND ( 'NONE', #47, .T. ) ;
#23 = MANIFOLD_SOLID_BREP ( 'Corps-Déplacer/Copier1[1]', #177 ) ;
#24 = CARTESIAN_POINT ( 'NONE',  ( 2.000000000000003553, 0.0000000000000000000, 0.9999999999999917843 ) ) ;
#25 = ORIENTED_EDGE ( 'NONE', *, *, #14, .F. ) ;
#26 = CARTESIAN_POINT ( 'NONE',  ( 1.800000000000030909, 0.0000000000000000000, 8.999999999999994671 ) ) ;
#27 = EDGE_LOOP ( 'NONE', ( #206 ) ) ;
#28 = AXIS2_PLACEMENT_3D ( 'NONE', #135, #226, #64 ) ;
#29 = EDGE_LOOP ( 'NONE', ( #184 ) ) ;
#30 = PERSON_AND_ORGANIZATION ( #129, #243 ) ;
#31 = FACE_OUTER_BOUND ( 'NONE', #73, .T. ) ;
#32 = CIRCLE ( 'NONE', #142, 1.799999999999999600 ) ;
#33 = LOCAL_TIME ( 11, 46, 6.000000000000000000, #59 ) ;
#34 = PRODUCT_DEFINITION_SHAPE ( 'NONE', 'NONE',  #16 ) ;
#35 = AXIS2_PLACEMENT_3D ( 'NONE', #165, #82, #51 ) ;
#36 = CC_DESIGN_PERSON_AND_ORGANIZATION_ASSIGNMENT ( #7, #107, ( #151 ) ) ;
#37 = APPROVAL_PERSON_ORGANIZATION ( #199, #159, #171 ) ;
#38 = ORIENTED_EDGE ( 'NONE', *, *, #194, .T. ) ;
#39 = CARTESIAN_POINT ( 'NONE',  ( 1.000000000000000222, 0.0000000000000000000, -4.792523945825739465E-15 ) ) ;
#40 = ORIENTED_EDGE ( 'NONE', *, *, #90, .F. ) ;
#41 = COORDINATED_UNIVERSAL_TIME_OFFSET ( 1, 0, .AHEAD. ) ;
#42 = CARTESIAN_POINT ( 'NONE',  ( 1.990144363140585886E-13, 1.599999999999990319, 56.99999999999999289 ) ) ;
#43 = APPLICATION_PROTOCOL_DEFINITION ( 'international standard', 'config_control_design', 1994, #188 ) ;
#44 = CIRCLE ( 'NONE', #81, 1.799999999999999600 ) ;
#45 = LOCAL_TIME ( 11, 46, 6.000000000000000000, #52 ) ;
#46 = EDGE_LOOP ( 'NONE', ( #102 ) ) ;
#47 = EDGE_LOOP ( 'NONE', ( #239 ) ) ;
#48 = ORIENTED_EDGE ( 'NONE', *, *, #194, .F. ) ;
#49 = DIRECTION ( 'NONE',  ( 4.275831445896958607E-31, 1.000000000000000000, 1.224646799147353207E-16 ) ) ;
#50 = DIRECTION ( 'NONE',  ( 1.000000000000000000, 0.0000000000000000000, -3.491481338843133355E-15 ) ) ;
#51 = DIRECTION ( 'NONE',  ( 1.000000000000000000, 0.0000000000000000000, -3.491481338843133355E-15 ) ) ;
#52 = COORDINATED_UNIVERSAL_TIME_OFFSET ( 1, 0, .AHEAD. ) ;
#53 = ORIENTED_EDGE ( 'NONE', *, *, #222, .F. ) ;
#54 = AXIS2_PLACEMENT_3D ( 'NONE', #134, #95, #227 ) ;
#55 = DIRECTION ( 'NONE',  ( -3.491481338843133355E-15, 1.224646799147353207E-16, -1.000000000000000000 ) ) ;
#56 = COORDINATED_UNIVERSAL_TIME_OFFSET ( 1, 0, .AHEAD. ) ;
#57 = CALENDAR_DATE ( 2021, 18, 11 ) ;
#58 = VERTEX_POINT ( 'NONE', #202 ) ;
#59 = COORDINATED_UNIVERSAL_TIME_OFFSET ( 1, 0, .AHEAD. ) ;
#60 = CARTESIAN_POINT ( 'NONE',  ( -1.999999999999948486, -1.714505518806294441E-15, 14.00000000000000533 ) ) ;
#61 = DIRECTION ( 'NONE',  ( 3.491481338843133355E-15, -0.0000000000000000000, 1.000000000000000000 ) ) ;
#62 = AXIS2_PLACEMENT_3D ( 'NONE', #152, #196, #130 ) ;
#63 = PLANE ( 'NONE',  #237 ) ;
#64 = DIRECTION ( 'NONE',  ( 4.275831445896958607E-31, 1.000000000000000000, 1.224646799147353207E-16 ) ) ;
#65 = SECURITY_CLASSIFICATION_LEVEL ( 'unclassified' ) ;
#66 = DIRECTION ( 'NONE',  ( -3.491481338843133355E-15, 1.224646799147353207E-16, -1.000000000000000000 ) ) ;
#67 = AXIS2_PLACEMENT_3D ( 'NONE', #252, #84, #5 ) ;
#68 = EDGE_LOOP ( 'NONE', ( #48 ) ) ;
#69 = ORIENTED_EDGE ( 'NONE', *, *, #14, .T. ) ;
#70 = AXIS2_PLACEMENT_3D ( 'NONE', #181, #2, #80 ) ;
#71 = DIRECTION ( 'NONE',  ( 0.0000000000000000000, 1.000000000000000000, 0.0000000000000000000 ) ) ;
#72 = AXIS2_PLACEMENT_3D ( 'NONE', #101, #167, #122 ) ;
#73 = EDGE_LOOP ( 'NONE', ( #189 ) ) ;
#74 = MECHANICAL_CONTEXT ( 'NONE', #188, 'mechanical' ) ;
#75 = CARTESIAN_POINT ( 'NONE',  ( 1.800000000000048228, 0.0000000000000000000, 13.99999999999999112 ) ) ;
#76 =( NAMED_UNIT ( * ) SI_UNIT ( $, .STERADIAN. ) SOLID_ANGLE_UNIT ( ) );
#77 = APPROVAL ( #21, 'UNSPECIFIED' ) ;
#78 = VERTEX_POINT ( 'NONE', #24 ) ;
#79 = DIRECTION ( 'NONE',  ( 3.491481338843133355E-15, -0.0000000000000000000, 1.000000000000000000 ) ) ;
#80 = DIRECTION ( 'NONE',  ( 4.275831445896959482E-31, 1.000000000000000000, 1.224646799147353454E-16 ) ) ;
#81 = AXIS2_PLACEMENT_3D ( 'NONE', #89, #124, #149 ) ;
#82 = DIRECTION ( 'NONE',  ( 3.491481338843133355E-15, -0.0000000000000000000, 1.000000000000000000 ) ) ;
#83 = ADVANCED_FACE ( 'NONE', ( #31 ), #120, .F. ) ;
#84 = DIRECTION ( 'NONE',  ( 3.491481338843133355E-15, -0.0000000000000000000, 1.000000000000000000 ) ) ;
#85 = FACE_OUTER_BOUND ( 'NONE', #128, .T. ) ;
#86 = AXIS2_PLACEMENT_3D ( 'NONE', #168, #207, #208 ) ;
#87 = PLANE ( 'NONE',  #86 ) ;
#88 = CC_DESIGN_APPROVAL ( #147, ( #16 ) ) ;
#89 = CARTESIAN_POINT ( 'NONE',  ( 4.888073874380386066E-14, 0.0000000000000000000, 13.99999999999999822 ) ) ;
#90 = EDGE_CURVE ( 'NONE', #78, #78, #218, .T. ) ;
#91 = COORDINATED_UNIVERSAL_TIME_OFFSET ( 1, 0, .AHEAD. ) ;
#92 = LOCAL_TIME ( 11, 46, 6.000000000000000000, #41 ) ;
#93 = ORIENTED_EDGE ( 'NONE', *, *, #209, .F. ) ;
#94 = EDGE_CURVE ( 'NONE', #113, #113, #212, .T. ) ;
#95 = DIRECTION ( 'NONE',  ( -3.491481338843133355E-15, 1.224646799147353207E-16, -1.000000000000000000 ) ) ;
#96 = ADVANCED_FACE ( 'NONE', ( #12 ), #87, .T. ) ;
#97 = CALENDAR_DATE ( 2021, 18, 11 ) ;
#98 =( GEOMETRIC_REPRESENTATION_CONTEXT ( 3 ) GLOBAL_UNCERTAINTY_ASSIGNED_CONTEXT ( ( #17 ) ) GLOBAL_UNIT_ASSIGNED_CONTEXT ( ( #99, #176, #76 ) ) REPRESENTATION_CONTEXT ( 'NONE', 'WORKASPACE' ) );
#99 =( LENGTH_UNIT ( ) NAMED_UNIT ( * ) SI_UNIT ( .MILLI., .METRE. ) );
#100 = FACE_OUTER_BOUND ( 'NONE', #144, .T. ) ;
#101 = CARTESIAN_POINT ( 'NONE',  ( 3.142333204958820651E-14, 1.499759782661855692E-32, 9.000000000000001776 ) ) ;
#102 = ORIENTED_EDGE ( 'NONE', *, *, #209, .T. ) ;
#103 = ADVANCED_BREP_SHAPE_REPRESENTATION ( '339043', ( #23, #195, #62 ), #98 ) ;
#104 = TOROIDAL_SURFACE ( 'NONE', #131, 1.000000000000000000, 1.000000000000000000 ) ;
#105 = LOCAL_TIME ( 11, 46, 6.000000000000000000, #56 ) ;
#106 = FACE_OUTER_BOUND ( 'NONE', #155, .T. ) ;
#107 = PERSON_AND_ORGANIZATION_ROLE ( 'creator' ) ;
#108 = CARTESIAN_POINT ( 'NONE',  ( 1.976178437785213353E-13, -6.931500883174018694E-15, 56.59999999999999432 ) ) ;
#109 = DIRECTION ( 'NONE',  ( -1.000000000000000000, 0.0000000000000000000, 3.469446951953618922E-15 ) ) ;
#110 = CYLINDRICAL_SURFACE ( 'NONE', #183, 1.799999999999999600 ) ;
#111 = PRODUCT ( '339043', '339043', '', ( #74 ) ) ;
#112 = PERSON_AND_ORGANIZATION ( #129, #243 ) ;
#113 = VERTEX_POINT ( 'NONE', #60 ) ;
#114 = PERSON_AND_ORGANIZATION ( #129, #243 ) ;
#115 = CYLINDRICAL_SURFACE ( 'NONE', #28, 2.000000000000000000 ) ;
#116 = CALENDAR_DATE ( 2021, 18, 11 ) ;
#117 = CIRCLE ( 'NONE', #150, 1.999999999999994893 ) ;
#118 = FACE_OUTER_BOUND ( 'NONE', #29, .T. ) ;
#119 = CC_DESIGN_PERSON_AND_ORGANIZATION_ASSIGNMENT ( #30, #9, ( #163 ) ) ;
#120 = PLANE ( 'NONE',  #72 ) ;
#121 = DIRECTION ( 'NONE',  ( 4.275831445896958607E-31, 1.000000000000000000, 1.224646799147353207E-16 ) ) ;
#122 = DIRECTION ( 'NONE',  ( -4.275831445896958607E-31, -1.000000000000000000, -1.224646799147353207E-16 ) ) ;
#123 = AXIS2_PLACEMENT_3D ( 'NONE', #145, #235, #146 ) ;
#124 = DIRECTION ( 'NONE',  ( 3.491481338843133355E-15, -0.0000000000000000000, 1.000000000000000000 ) ) ;
#125 = AXIS2_PLACEMENT_3D ( 'NONE', #187, #231, #121 ) ;
#126 = CC_DESIGN_PERSON_AND_ORGANIZATION_ASSIGNMENT ( #221, #198, ( #16 ) ) ;
#127 = APPROVAL_ROLE ( '' ) ;
#128 = EDGE_LOOP ( 'NONE', ( #53 ) ) ;
#129 = PERSON ( 'UNSPECIFIED', 'UNSPECIFIED', 'UNSPECIFIED', ('UNSPECIFIED'), ('UNSPECIFIED'), ('UNSPECIFIED') ) ;
#130 = DIRECTION ( 'NONE',  ( 1.000000000000000000, 0.0000000000000000000, 0.0000000000000000000 ) ) ;
#131 = AXIS2_PLACEMENT_3D ( 'NONE', #246, #61, #223 ) ;
#132 = FACE_OUTER_BOUND ( 'NONE', #46, .T. ) ;
#133 = APPLICATION_PROTOCOL_DEFINITION ( 'international standard', 'config_control_design', 1994, #154 ) ;
#134 = CARTESIAN_POINT ( 'NONE',  ( 1.976178437785213353E-13, -6.931500883174018694E-15, 56.59999999999999432 ) ) ;
#135 = CARTESIAN_POINT ( 'NONE',  ( 0.0000000000000000000, 0.0000000000000000000, 0.0000000000000000000 ) ) ;
#136 = CC_DESIGN_DATE_AND_TIME_ASSIGNMENT ( #19, #240, ( #16 ) ) ;
#137 = CARTESIAN_POINT ( 'NONE',  ( 4.888073874380386066E-14, 2.999999999999997335, 13.99999999999999822 ) ) ;
#138 = PERSON_AND_ORGANIZATION ( #129, #243 ) ;
#139 = ORIENTED_EDGE ( 'NONE', *, *, #90, .T. ) ;
#140 = ADVANCED_FACE ( 'NONE', ( #161, #247 ), #63, .T. ) ;
#141 = CARTESIAN_POINT ( 'NONE',  ( 3.142333204958820651E-14, 0.0000000000000000000, 9.000000000000001776 ) ) ;
#142 = AXIS2_PLACEMENT_3D ( 'NONE', #141, #211, #233 ) ;
#143 = CLOSED_SHELL ( 'NONE', ( #261, #96, #257, #186 ) ) ;
#144 = EDGE_LOOP ( 'NONE', ( #139 ) ) ;
#145 = CARTESIAN_POINT ( 'NONE',  ( 1.990144363140585886E-13, -6.980486755139912911E-15, 56.99999999999999289 ) ) ;
#146 = DIRECTION ( 'NONE',  ( 0.0000000000000000000, 1.000000000000000000, 0.0000000000000000000 ) ) ;
#147 = APPROVAL ( #1, 'UNSPECIFIED' ) ;
#148 = AXIS2_PLACEMENT_3D ( 'NONE', #250, #66, #49 ) ;
#149 = DIRECTION ( 'NONE',  ( 1.000000000000000000, 0.0000000000000000000, -3.854941057726238689E-15 ) ) ;
#150 = AXIS2_PLACEMENT_3D ( 'NONE', #108, #55, #71 ) ;
#151 = PRODUCT_DEFINITION_FORMATION_WITH_SPECIFIED_SOURCE ( 'ANY', '', #111, .NOT_KNOWN. ) ;
#152 = CARTESIAN_POINT ( 'NONE',  ( 0.0000000000000000000, 0.0000000000000000000, 0.0000000000000000000 ) ) ;
#153 = DATE_AND_TIME ( #97, #105 ) ;
#154 = APPLICATION_CONTEXT ( 'configuration controlled 3d designs of mechanical parts and assemblies' ) ;
#155 = EDGE_LOOP ( 'NONE', ( #25 ) ) ;
#156 = PERSON_AND_ORGANIZATION ( #129, #243 ) ;
#157 = CALENDAR_DATE ( 2021, 18, 11 ) ;
#158 = DATE_TIME_ROLE ( 'classification_date' ) ;
#159 = APPROVAL ( #205, 'UNSPECIFIED' ) ;
#160 = FACE_OUTER_BOUND ( 'NONE', #18, .T. ) ;
#161 = FACE_OUTER_BOUND ( 'NONE', #245, .T. ) ;
#162 = CONICAL_SURFACE ( 'NONE', #54, 1.999999999999994893, 0.7853981633974482790 ) ;
#163 = SECURITY_CLASSIFICATION ( '', '', #65 ) ;
#164 = CYLINDRICAL_SURFACE ( 'NONE', #70, 1.999999999999997335 ) ;
#165 = CARTESIAN_POINT ( 'NONE',  ( -4.542565983319587431E-30, 0.0000000000000000000, -1.301042606982605321E-15 ) ) ;
#166 = PLANE ( 'NONE',  #148 ) ;
#167 = DIRECTION ( 'NONE',  ( 3.491481338843133355E-15, -1.224646799147353207E-16, 1.000000000000000000 ) ) ;
#168 = CARTESIAN_POINT ( 'NONE',  ( 3.142333204958820651E-14, 1.499759782661855692E-32, 9.000000000000001776 ) ) ;
#169 = DIRECTION ( 'NONE',  ( -3.491481338843133355E-15, 1.224646799147353207E-16, -1.000000000000000000 ) ) ;
#170 = CC_DESIGN_SECURITY_CLASSIFICATION ( #163, ( #151 ) ) ;
#171 = APPROVAL_ROLE ( '' ) ;
#172 = EDGE_LOOP ( 'NONE', ( #262 ) ) ;
#173 = DESIGN_CONTEXT ( 'detailed design', #154, 'design' ) ;
#174 = VERTEX_POINT ( 'NONE', #75 ) ;
#175 = APPROVAL_ROLE ( '' ) ;
#176 =( NAMED_UNIT ( * ) PLANE_ANGLE_UNIT ( ) SI_UNIT ( $, .RADIAN. ) );
#177 = CLOSED_SHELL ( 'NONE', ( #251, #241, #10, #213, #140, #83 ) ) ;
#178 = VERTEX_POINT ( 'NONE', #42 ) ;
#179 = CALENDAR_DATE ( 2021, 18, 11 ) ;
#180 = APPROVAL_DATE_TIME ( #253, #77 ) ;
#181 = CARTESIAN_POINT ( 'NONE',  ( 0.0000000000000000000, 0.0000000000000000000, 0.0000000000000000000 ) ) ;
#182 = DIRECTION ( 'NONE',  ( -1.000000000000000000, 0.0000000000000000000, 3.491481338843133355E-15 ) ) ;
#183 = AXIS2_PLACEMENT_3D ( 'NONE', #185, #228, #50 ) ;
#184 = ORIENTED_EDGE ( 'NONE', *, *, #193, .F. ) ;
#185 = CARTESIAN_POINT ( 'NONE',  ( -1.282749433769087757E-30, 0.0000000000000000000, -3.673940397442059868E-16 ) ) ;
#186 = ADVANCED_FACE ( 'NONE', ( #106 ), #166, .T. ) ;
#187 = CARTESIAN_POINT ( 'NONE',  ( 1.990144363140585886E-13, 8.617674991656017117E-31, 56.99999999999999289 ) ) ;
#188 = APPLICATION_CONTEXT ( 'configuration controlled 3d designs of mechanical parts and assemblies' ) ;
#189 = ORIENTED_EDGE ( 'NONE', *, *, #6, .F. ) ;
#190 = CIRCLE ( 'NONE', #229, 2.000000000000000000 ) ;
#191 = APPROVAL_PERSON_ORGANIZATION ( #156, #147, #127 ) ;
#192 = CARTESIAN_POINT ( 'NONE',  ( 3.142333204958820651E-14, -1.102182119232617911E-15, 9.000000000000001776 ) ) ;
#193 = EDGE_CURVE ( 'NONE', #200, #200, #117, .T. ) ;
#194 = EDGE_CURVE ( 'NONE', #174, #174, #44, .T. ) ;
#195 = MANIFOLD_SOLID_BREP ( 'Corps-Déplacer/Copier1[2]', #143 ) ;
#196 = DIRECTION ( 'NONE',  ( 0.0000000000000000000, 0.0000000000000000000, 1.000000000000000000 ) ) ;
#197 = EDGE_LOOP ( 'NONE', ( #40 ) ) ;
#198 = PERSON_AND_ORGANIZATION_ROLE ( 'creator' ) ;
#199 = PERSON_AND_ORGANIZATION ( #129, #243 ) ;
#200 = VERTEX_POINT ( 'NONE', #20 ) ;
#201 = APPROVAL_DATE_TIME ( #260, #147 ) ;
#202 = CARTESIAN_POINT ( 'NONE',  ( 3.142333204958820651E-14, 1.999999999999998668, 9.000000000000001776 ) ) ;
#203 = CC_DESIGN_PERSON_AND_ORGANIZATION_ASSIGNMENT ( #138, #249, ( #151 ) ) ;
#204 = CIRCLE ( 'NONE', #35, 1.000000000000000222 ) ;
#205 = APPROVAL_STATUS ( 'not_yet_approved' ) ;
#206 = ORIENTED_EDGE ( 'NONE', *, *, #94, .T. ) ;
#207 = DIRECTION ( 'NONE',  ( 3.491481338843133355E-15, -1.224646799147353207E-16, 1.000000000000000000 ) ) ;
#208 = DIRECTION ( 'NONE',  ( -4.275831445896958607E-31, -1.000000000000000000, -1.224646799147353207E-16 ) ) ;
#209 = EDGE_CURVE ( 'NONE', #58, #58, #190, .T. ) ;
#210 = PLANE ( 'NONE',  #125 ) ;
#211 = DIRECTION ( 'NONE',  ( 3.491481338843133355E-15, -0.0000000000000000000, 1.000000000000000000 ) ) ;
#212 = CIRCLE ( 'NONE', #254, 1.999999999999997335 ) ;
#213 = ADVANCED_FACE ( 'NONE', ( #256, #236 ), #110, .T. ) ;
#214 = LOCAL_TIME ( 11, 46, 6.000000000000000000, #91 ) ;
#215 = EDGE_LOOP ( 'NONE', ( #93 ) ) ;
#216 = SHAPE_DEFINITION_REPRESENTATION ( #34, #103 ) ;
#217 = VERTEX_POINT ( 'NONE', #26 ) ;
#218 = CIRCLE ( 'NONE', #67, 2.000000000000000000 ) ;
#219 = EDGE_LOOP ( 'NONE', ( #234 ) ) ;
#220 = CC_DESIGN_APPROVAL ( #77, ( #151 ) ) ;
#221 = PERSON_AND_ORGANIZATION ( #129, #243 ) ;
#222 = EDGE_CURVE ( 'NONE', #178, #178, #248, .T. ) ;
#223 = DIRECTION ( 'NONE',  ( 1.000000000000000000, 0.0000000000000000000, -3.491481338843133355E-15 ) ) ;
#224 = PERSON_AND_ORGANIZATION_ROLE ( 'design_owner' ) ;
#225 = CC_DESIGN_PERSON_AND_ORGANIZATION_ASSIGNMENT ( #112, #224, ( #111 ) ) ;
#226 = DIRECTION ( 'NONE',  ( -3.491481338843133355E-15, 1.224646799147353207E-16, -1.000000000000000000 ) ) ;
#227 = DIRECTION ( 'NONE',  ( 0.0000000000000000000, 1.000000000000000000, 0.0000000000000000000 ) ) ;
#228 = DIRECTION ( 'NONE',  ( 3.491481338843133355E-15, -0.0000000000000000000, 1.000000000000000000 ) ) ;
#229 = AXIS2_PLACEMENT_3D ( 'NONE', #192, #169, #255 ) ;
#230 = DIRECTION ( 'NONE',  ( -3.491481338843133355E-15, 0.0000000000000000000, -1.000000000000000000 ) ) ;
#231 = DIRECTION ( 'NONE',  ( -3.491481338843133355E-15, 1.224646799147353207E-16, -1.000000000000000000 ) ) ;
#232 = CARTESIAN_POINT ( 'NONE',  ( 4.888073874380386066E-14, -1.714505518806294441E-15, 13.99999999999999822 ) ) ;
#233 = DIRECTION ( 'NONE',  ( 1.000000000000000000, 0.0000000000000000000, -3.854941057726238689E-15 ) ) ;
#234 = ORIENTED_EDGE ( 'NONE', *, *, #6, .T. ) ;
#235 = DIRECTION ( 'NONE',  ( -3.491481338843133355E-15, 1.224646799147353207E-16, -1.000000000000000000 ) ) ;
#236 = FACE_OUTER_BOUND ( 'NONE', #68, .T. ) ;
#237 = AXIS2_PLACEMENT_3D ( 'NONE', #137, #230, #182 ) ;
#238 = APPROVAL_PERSON_ORGANIZATION ( #114, #77, #175 ) ;
#239 = ORIENTED_EDGE ( 'NONE', *, *, #193, .T. ) ;
#240 = DATE_TIME_ROLE ( 'creation_date' ) ;
#241 = ADVANCED_FACE ( 'NONE', ( #4, #118 ), #162, .T. ) ;
#242 = FACE_OUTER_BOUND ( 'NONE', #27, .T. ) ;
#243 = ORGANIZATION ( 'UNSPECIFIED', 'UNSPECIFIED', '' ) ;
#244 = FACE_OUTER_BOUND ( 'NONE', #197, .T. ) ;
#245 = EDGE_LOOP ( 'NONE', ( #11 ) ) ;
#246 = CARTESIAN_POINT ( 'NONE',  ( 3.491481338843129017E-15, 0.0000000000000000000, 0.9999999999999986677 ) ) ;
#247 = FACE_BOUND ( 'NONE', #8, .T. ) ;
#248 = CIRCLE ( 'NONE', #123, 1.599999999999997202 ) ;
#249 = PERSON_AND_ORGANIZATION_ROLE ( 'design_supplier' ) ;
#250 = CARTESIAN_POINT ( 'NONE',  ( -4.275831445896957731E-31, 1.499759782661857608E-32, -1.224646799147353207E-16 ) ) ;
#251 = ADVANCED_FACE ( 'NONE', ( #22, #242 ), #164, .T. ) ;
#252 = CARTESIAN_POINT ( 'NONE',  ( 3.491481338843129017E-15, 0.0000000000000000000, 0.9999999999999986677 ) ) ;
#253 = DATE_AND_TIME ( #116, #33 ) ;
#254 = AXIS2_PLACEMENT_3D ( 'NONE', #232, #79, #109 ) ;
#255 = DIRECTION ( 'NONE',  ( 0.0000000000000000000, 1.000000000000000000, 0.0000000000000000000 ) ) ;
#256 = FACE_OUTER_BOUND ( 'NONE', #219, .T. ) ;
#257 = ADVANCED_FACE ( 'NONE', ( #160, #244 ), #104, .T. ) ;
#258 = APPROVAL_DATE_TIME ( #153, #159 ) ;
#259 = PRODUCT_RELATED_PRODUCT_CATEGORY ( 'detail', '', ( #111 ) ) ;
#260 = DATE_AND_TIME ( #57, #214 ) ;
#261 = ADVANCED_FACE ( 'NONE', ( #100, #132 ), #115, .T. ) ;
#262 = ORIENTED_EDGE ( 'NONE', *, *, #222, .T. ) ;
#263 = VERTEX_POINT ( 'NONE', #39 ) ;
ENDSEC;
END-ISO-10303-21;
