ISO-10303-21;
HEADER;
FILE_DESCRIPTION (( 'STEP AP203' ),
    '1' );
FILE_NAME ('339042.step',
    '2021-11-18T10:46:05',
    ( '' ),
    ( '' ),
    'SwSTEP 2.0',
    'SolidWorks 2019',
    '' );
FILE_SCHEMA (( 'CONFIG_CONTROL_DESIGN' ));
ENDSEC;

DATA;
#1 = DIRECTION ( 'NONE',  ( -3.491481338843133355E-15, 1.224646799147353207E-16, -1.000000000000000000 ) ) ;
#2 = DIRECTION ( 'NONE',  ( 1.000000000000000000, 0.0000000000000000000, -3.469446951953614189E-15 ) ) ;
#3 =( LENGTH_UNIT ( ) NAMED_UNIT ( * ) SI_UNIT ( .MILLI., .METRE. ) );
#4 = FACE_OUTER_BOUND ( 'NONE', #166, .T. ) ;
#5 = DIRECTION ( 'NONE',  ( -3.491481338843133355E-15, 1.224646799147353207E-16, -1.000000000000000000 ) ) ;
#6 = VERTEX_POINT ( 'NONE', #182 ) ;
#7 = VERTEX_POINT ( 'NONE', #46 ) ;
#8 = APPROVAL_STATUS ( 'not_yet_approved' ) ;
#9 = DATE_AND_TIME ( #90, #245 ) ;
#10 = CARTESIAN_POINT ( 'NONE',  ( 2.000000000000001776, 0.0000000000000000000, 0.4999999999999917843 ) ) ;
#11 = ORIENTED_EDGE ( 'NONE', *, *, #137, .T. ) ;
#12 = CARTESIAN_POINT ( 'NONE',  ( 4.888073874380386066E-14, 2.999999999999997335, 13.99999999999999822 ) ) ;
#13 = APPROVAL ( #196, 'UNSPECIFIED' ) ;
#14 = CC_DESIGN_APPROVAL ( #104, ( #232 ) ) ;
#15 = MANIFOLD_SOLID_BREP ( 'Corps-Déplacer/Copier1[1]', #64 ) ;
#16 = PERSON_AND_ORGANIZATION ( #128, #252 ) ;
#17 = CARTESIAN_POINT ( 'NONE',  ( 1.990144363140585886E-13, 8.617674991656017117E-31, 56.99999999999999289 ) ) ;
#18 = APPROVAL_DATE_TIME ( #200, #13 ) ;
#19 = FACE_OUTER_BOUND ( 'NONE', #208, .T. ) ;
#20 = VERTEX_POINT ( 'NONE', #108 ) ;
#21 = FACE_OUTER_BOUND ( 'NONE', #191, .T. ) ;
#22 = CARTESIAN_POINT ( 'NONE',  ( 1.976178437785213353E-13, -6.931500883174018694E-15, 56.59999999999999432 ) ) ;
#23 = AXIS2_PLACEMENT_3D ( 'NONE', #97, #119, #259 ) ;
#24 = AXIS2_PLACEMENT_3D ( 'NONE', #68, #60, #146 ) ;
#25 =( GEOMETRIC_REPRESENTATION_CONTEXT ( 3 ) GLOBAL_UNCERTAINTY_ASSIGNED_CONTEXT ( ( #72 ) ) GLOBAL_UNIT_ASSIGNED_CONTEXT ( ( #3, #154, #124 ) ) REPRESENTATION_CONTEXT ( 'NONE', 'WORKASPACE' ) );
#26 = VERTEX_POINT ( 'NONE', #149 ) ;
#27 = PERSON_AND_ORGANIZATION_ROLE ( 'creator' ) ;
#28 = ORIENTED_EDGE ( 'NONE', *, *, #211, .F. ) ;
#29 = PLANE ( 'NONE',  #122 ) ;
#30 = FACE_OUTER_BOUND ( 'NONE', #67, .T. ) ;
#31 = AXIS2_PLACEMENT_3D ( 'NONE', #131, #65, #178 ) ;
#32 = DIRECTION ( 'NONE',  ( 3.491481338843133355E-15, -1.224646799147353207E-16, 1.000000000000000000 ) ) ;
#33 = AXIS2_PLACEMENT_3D ( 'NONE', #58, #1, #144 ) ;
#34 = DIRECTION ( 'NONE',  ( 3.491481338843133355E-15, -0.0000000000000000000, 1.000000000000000000 ) ) ;
#35 = PRODUCT_DEFINITION_SHAPE ( 'NONE', 'NONE',  #70 ) ;
#36 = CALENDAR_DATE ( 2021, 18, 11 ) ;
#37 = DIRECTION ( 'NONE',  ( 0.0000000000000000000, 1.000000000000000000, 0.0000000000000000000 ) ) ;
#38 = CARTESIAN_POINT ( 'NONE',  ( 1.745740669421562142E-15, 0.0000000000000000000, 0.4999999999999987232 ) ) ;
#39 = ADVANCED_FACE ( 'NONE', ( #216, #142 ), #160, .T. ) ;
#40 = DIRECTION ( 'NONE',  ( 1.000000000000000000, 0.0000000000000000000, 0.0000000000000000000 ) ) ;
#41 = APPROVAL_PERSON_ORGANIZATION ( #45, #262, #132 ) ;
#42 = DATE_AND_TIME ( #184, #162 ) ;
#43 = PERSON_AND_ORGANIZATION ( #128, #252 ) ;
#44 = EDGE_LOOP ( 'NONE', ( #63 ) ) ;
#45 = PERSON_AND_ORGANIZATION ( #128, #252 ) ;
#46 = CARTESIAN_POINT ( 'NONE',  ( 1.499999999999999556, 0.0000000000000000000, -6.755105049744404663E-15 ) ) ;
#47 = PERSON_AND_ORGANIZATION_ROLE ( 'design_supplier' ) ;
#48 = APPROVAL_DATE_TIME ( #42, #104 ) ;
#49 = APPLICATION_CONTEXT ( 'configuration controlled 3d designs of mechanical parts and assemblies' ) ;
#50 = EDGE_LOOP ( 'NONE', ( #28 ) ) ;
#51 = ADVANCED_FACE ( 'NONE', ( #220, #4 ), #130, .T. ) ;
#52 = DIRECTION ( 'NONE',  ( 0.0000000000000000000, 0.0000000000000000000, 1.000000000000000000 ) ) ;
#53 = EDGE_LOOP ( 'NONE', ( #148 ) ) ;
#54 = CARTESIAN_POINT ( 'NONE',  ( 3.142333204958820651E-14, 1.499759782661855692E-32, 9.000000000000001776 ) ) ;
#55 = DIRECTION ( 'NONE',  ( 1.000000000000000000, 0.0000000000000000000, -3.491481338843133355E-15 ) ) ;
#56 = EDGE_LOOP ( 'NONE', ( #157 ) ) ;
#57 = PERSON_AND_ORGANIZATION_ROLE ( 'design_owner' ) ;
#58 = CARTESIAN_POINT ( 'NONE',  ( 1.990144363140585886E-13, -6.980486755139912911E-15, 56.99999999999999289 ) ) ;
#59 = PLANE ( 'NONE',  #102 ) ;
#60 = DIRECTION ( 'NONE',  ( -3.491481338843133355E-15, 1.224646799147353207E-16, -1.000000000000000000 ) ) ;
#61 = PERSON_AND_ORGANIZATION ( #128, #252 ) ;
#62 = DIRECTION ( 'NONE',  ( 1.000000000000000000, 0.0000000000000000000, -3.854941057726238689E-15 ) ) ;
#63 = ORIENTED_EDGE ( 'NONE', *, *, #225, .F. ) ;
#64 = CLOSED_SHELL ( 'NONE', ( #51, #238, #161, #39, #118, #76 ) ) ;
#65 = DIRECTION ( 'NONE',  ( 3.491481338843133355E-15, -0.0000000000000000000, 1.000000000000000000 ) ) ;
#66 = CIRCLE ( 'NONE', #33, 1.599999999999997202 ) ;
#67 = EDGE_LOOP ( 'NONE', ( #246 ) ) ;
#68 = CARTESIAN_POINT ( 'NONE',  ( 3.142333204958820651E-14, -1.102182119232617911E-15, 9.000000000000001776 ) ) ;
#69 = VERTEX_POINT ( 'NONE', #249 ) ;
#70 = PRODUCT_DEFINITION ( 'UNKNOWN', '', #95, #253 ) ;
#71 = VERTEX_POINT ( 'NONE', #10 ) ;
#72 = UNCERTAINTY_MEASURE_WITH_UNIT (LENGTH_MEASURE( 1.000000000000000082E-05 ), #3, 'distance_accuracy_value', 'NONE');
#73 = ORIENTED_EDGE ( 'NONE', *, *, #129, .F. ) ;
#74 = CLOSED_SHELL ( 'NONE', ( #251, #93, #125, #207 ) ) ;
#75 = PERSON_AND_ORGANIZATION ( #128, #252 ) ;
#76 = ADVANCED_FACE ( 'NONE', ( #156 ), #195, .F. ) ;
#77 = EDGE_LOOP ( 'NONE', ( #169 ) ) ;
#78 = CIRCLE ( 'NONE', #31, 1.799999999999999600 ) ;
#79 = CARTESIAN_POINT ( 'NONE',  ( 3.142333204958820651E-14, 1.499759782661855692E-32, 9.000000000000001776 ) ) ;
#80 = LOCAL_TIME ( 11, 46, 5.000000000000000000, #114 ) ;
#81 = PERSON_AND_ORGANIZATION_ROLE ( 'creator' ) ;
#82 = FACE_OUTER_BOUND ( 'NONE', #111, .T. ) ;
#83 = EDGE_LOOP ( 'NONE', ( #174 ) ) ;
#84 = EDGE_LOOP ( 'NONE', ( #73 ) ) ;
#85 = CARTESIAN_POINT ( 'NONE',  ( 1.976178437785213353E-13, -6.931500883174018694E-15, 56.59999999999999432 ) ) ;
#86 = CARTESIAN_POINT ( 'NONE',  ( -5.299660313872851886E-30, 0.0000000000000000000, -1.517883041479706208E-15 ) ) ;
#87 = CC_DESIGN_PERSON_AND_ORGANIZATION_ASSIGNMENT ( #16, #57, ( #183 ) ) ;
#88 = CARTESIAN_POINT ( 'NONE',  ( 0.0000000000000000000, 0.0000000000000000000, 0.0000000000000000000 ) ) ;
#89 = SECURITY_CLASSIFICATION_LEVEL ( 'unclassified' ) ;
#90 = CALENDAR_DATE ( 2021, 18, 11 ) ;
#91 = AXIS2_PLACEMENT_3D ( 'NONE', #206, #138, #121 ) ;
#92 = CIRCLE ( 'NONE', #190, 2.000000000000000000 ) ;
#93 = ADVANCED_FACE ( 'NONE', ( #82 ), #59, .T. ) ;
#94 = CC_DESIGN_PERSON_AND_ORGANIZATION_ASSIGNMENT ( #179, #81, ( #70 ) ) ;
#95 = PRODUCT_DEFINITION_FORMATION_WITH_SPECIFIED_SOURCE ( 'ANY', '', #183, .NOT_KNOWN. ) ;
#96 = COORDINATED_UNIVERSAL_TIME_OFFSET ( 1, 0, .AHEAD. ) ;
#97 = CARTESIAN_POINT ( 'NONE',  ( 4.888073874380386066E-14, -1.714505518806294441E-15, 13.99999999999999822 ) ) ;
#98 = FACE_OUTER_BOUND ( 'NONE', #228, .T. ) ;
#99 = CC_DESIGN_PERSON_AND_ORGANIZATION_ASSIGNMENT ( #250, #47, ( #95 ) ) ;
#100 = ORIENTED_EDGE ( 'NONE', *, *, #173, .F. ) ;
#101 = EDGE_LOOP ( 'NONE', ( #233 ) ) ;
#102 = AXIS2_PLACEMENT_3D ( 'NONE', #54, #32, #255 ) ;
#103 = COORDINATED_UNIVERSAL_TIME_OFFSET ( 1, 0, .AHEAD. ) ;
#104 = APPROVAL ( #8, 'UNSPECIFIED' ) ;
#105 = DIRECTION ( 'NONE',  ( -3.491481338843133355E-15, 1.224646799147353207E-16, -1.000000000000000000 ) ) ;
#106 = PLANE ( 'NONE',  #243 ) ;
#107 = CIRCLE ( 'NONE', #258, 1.499999999999999556 ) ;
#108 = CARTESIAN_POINT ( 'NONE',  ( -1.999999999999948486, -1.714505518806294441E-15, 14.00000000000000533 ) ) ;
#109 = CYLINDRICAL_SURFACE ( 'NONE', #140, 2.000000000000000000 ) ;
#110 = APPLICATION_CONTEXT ( 'configuration controlled 3d designs of mechanical parts and assemblies' ) ;
#111 = EDGE_LOOP ( 'NONE', ( #143 ) ) ;
#112 = ADVANCED_BREP_SHAPE_REPRESENTATION ( '339042', ( #15, #188, #234 ), #25 ) ;
#113 = CARTESIAN_POINT ( 'NONE',  ( 3.142333204958820651E-14, 1.999999999999998668, 9.000000000000001776 ) ) ;
#114 = COORDINATED_UNIVERSAL_TIME_OFFSET ( 1, 0, .AHEAD. ) ;
#115 = PERSON_AND_ORGANIZATION_ROLE ( 'classification_officer' ) ;
#116 = ORIENTED_EDGE ( 'NONE', *, *, #256, .T. ) ;
#117 = CIRCLE ( 'NONE', #176, 1.999999999999994893 ) ;
#118 = ADVANCED_FACE ( 'NONE', ( #30, #215 ), #29, .T. ) ;
#119 = DIRECTION ( 'NONE',  ( 3.491481338843133355E-15, -0.0000000000000000000, 1.000000000000000000 ) ) ;
#120 = EDGE_CURVE ( 'NONE', #20, #20, #257, .T. ) ;
#121 = DIRECTION ( 'NONE',  ( 4.275831445896959482E-31, 1.000000000000000000, 1.224646799147353454E-16 ) ) ;
#122 = AXIS2_PLACEMENT_3D ( 'NONE', #12, #155, #192 ) ;
#123 = DIRECTION ( 'NONE',  ( 4.275831445896958607E-31, 1.000000000000000000, 1.224646799147353207E-16 ) ) ;
#124 =( NAMED_UNIT ( * ) SI_UNIT ( $, .STERADIAN. ) SOLID_ANGLE_UNIT ( ) );
#125 = ADVANCED_FACE ( 'NONE', ( #194, #98 ), #175, .T. ) ;
#126 = DIRECTION ( 'NONE',  ( -3.491481338843133355E-15, 1.224646799147353207E-16, -1.000000000000000000 ) ) ;
#127 = FACE_OUTER_BOUND ( 'NONE', #56, .T. ) ;
#128 = PERSON ( 'UNSPECIFIED', 'UNSPECIFIED', 'UNSPECIFIED', ('UNSPECIFIED'), ('UNSPECIFIED'), ('UNSPECIFIED') ) ;
#129 = EDGE_CURVE ( 'NONE', #163, #163, #198, .T. ) ;
#130 = CYLINDRICAL_SURFACE ( 'NONE', #91, 1.999999999999997335 ) ;
#131 = CARTESIAN_POINT ( 'NONE',  ( 4.888073874380386066E-14, 0.0000000000000000000, 13.99999999999999822 ) ) ;
#132 = APPROVAL_ROLE ( '' ) ;
#133 = CONICAL_SURFACE ( 'NONE', #193, 1.999999999999994893, 0.7853981633974482790 ) ;
#134 = APPROVAL_PERSON_ORGANIZATION ( #136, #104, #248 ) ;
#135 = SHAPE_DEFINITION_REPRESENTATION ( #35, #112 ) ;
#136 = PERSON_AND_ORGANIZATION ( #128, #252 ) ;
#137 = EDGE_CURVE ( 'NONE', #71, #71, #92, .T. ) ;
#138 = DIRECTION ( 'NONE',  ( -3.491481338843133355E-15, 1.224646799147353207E-16, -1.000000000000000000 ) ) ;
#139 = ORIENTED_EDGE ( 'NONE', *, *, #211, .T. ) ;
#140 = AXIS2_PLACEMENT_3D ( 'NONE', #88, #126, #180 ) ;
#141 = MECHANICAL_CONTEXT ( 'NONE', #110, 'mechanical' ) ;
#142 = FACE_OUTER_BOUND ( 'NONE', #50, .T. ) ;
#143 = ORIENTED_EDGE ( 'NONE', *, *, #217, .F. ) ;
#144 = DIRECTION ( 'NONE',  ( 0.0000000000000000000, 1.000000000000000000, 0.0000000000000000000 ) ) ;
#145 = PLANE ( 'NONE',  #186 ) ;
#146 = DIRECTION ( 'NONE',  ( 0.0000000000000000000, 1.000000000000000000, 0.0000000000000000000 ) ) ;
#147 = DIRECTION ( 'NONE',  ( 1.000000000000000000, 0.0000000000000000000, -3.491481338843133355E-15 ) ) ;
#148 = ORIENTED_EDGE ( 'NONE', *, *, #129, .T. ) ;
#149 = CARTESIAN_POINT ( 'NONE',  ( 1.800000000000048228, 0.0000000000000000000, 13.99999999999999112 ) ) ;
#150 = PRODUCT_RELATED_PRODUCT_CATEGORY ( 'detail', '', ( #183 ) ) ;
#151 = CALENDAR_DATE ( 2021, 18, 11 ) ;
#152 = APPROVAL_DATE_TIME ( #187, #262 ) ;
#153 = AXIS2_PLACEMENT_3D ( 'NONE', #164, #34, #62 ) ;
#154 =( NAMED_UNIT ( * ) PLANE_ANGLE_UNIT ( ) SI_UNIT ( $, .RADIAN. ) );
#155 = DIRECTION ( 'NONE',  ( -3.491481338843133355E-15, 0.0000000000000000000, -1.000000000000000000 ) ) ;
#156 = FACE_OUTER_BOUND ( 'NONE', #84, .T. ) ;
#157 = ORIENTED_EDGE ( 'NONE', *, *, #217, .T. ) ;
#158 = AXIS2_PLACEMENT_3D ( 'NONE', #181, #199, #147 ) ;
#159 = CC_DESIGN_APPROVAL ( #13, ( #70 ) ) ;
#160 = CYLINDRICAL_SURFACE ( 'NONE', #213, 1.799999999999999600 ) ;
#161 = ADVANCED_FACE ( 'NONE', ( #19 ), #106, .F. ) ;
#162 = LOCAL_TIME ( 11, 46, 5.000000000000000000, #96 ) ;
#163 = VERTEX_POINT ( 'NONE', #227 ) ;
#164 = CARTESIAN_POINT ( 'NONE',  ( 3.142333204958820651E-14, 0.0000000000000000000, 9.000000000000001776 ) ) ;
#165 = CARTESIAN_POINT ( 'NONE',  ( -4.275831445896957731E-31, 1.499759782661857608E-32, -1.224646799147353207E-16 ) ) ;
#166 = EDGE_LOOP ( 'NONE', ( #204 ) ) ;
#167 = DATE_TIME_ROLE ( 'creation_date' ) ;
#168 = DATE_TIME_ROLE ( 'classification_date' ) ;
#169 = ORIENTED_EDGE ( 'NONE', *, *, #173, .T. ) ;
#170 = CIRCLE ( 'NONE', #24, 2.000000000000000000 ) ;
#171 = APPROVAL_PERSON_ORGANIZATION ( #61, #13, #223 ) ;
#172 = COORDINATED_UNIVERSAL_TIME_OFFSET ( 1, 0, .AHEAD. ) ;
#173 = EDGE_CURVE ( 'NONE', #6, #6, #66, .T. ) ;
#174 = ORIENTED_EDGE ( 'NONE', *, *, #256, .F. ) ;
#175 = TOROIDAL_SURFACE ( 'NONE', #158, 1.499999999999999556, 0.5000000000000002220 ) ;
#176 = AXIS2_PLACEMENT_3D ( 'NONE', #22, #241, #221 ) ;
#177 = EDGE_LOOP ( 'NONE', ( #116 ) ) ;
#178 = DIRECTION ( 'NONE',  ( 1.000000000000000000, 0.0000000000000000000, -3.854941057726238689E-15 ) ) ;
#179 = PERSON_AND_ORGANIZATION ( #128, #252 ) ;
#180 = DIRECTION ( 'NONE',  ( 4.275831445896958607E-31, 1.000000000000000000, 1.224646799147353207E-16 ) ) ;
#181 = CARTESIAN_POINT ( 'NONE',  ( 1.745740669421562142E-15, 0.0000000000000000000, 0.4999999999999987232 ) ) ;
#182 = CARTESIAN_POINT ( 'NONE',  ( 1.990144363140585886E-13, 1.599999999999990319, 56.99999999999999289 ) ) ;
#183 = PRODUCT ( '339042', '339042', '', ( #141 ) ) ;
#184 = CALENDAR_DATE ( 2021, 18, 11 ) ;
#185 = DIRECTION ( 'NONE',  ( 4.275831445896958607E-31, 1.000000000000000000, 1.224646799147353207E-16 ) ) ;
#186 = AXIS2_PLACEMENT_3D ( 'NONE', #165, #5, #123 ) ;
#187 = DATE_AND_TIME ( #151, #80 ) ;
#188 = MANIFOLD_SOLID_BREP ( 'Corps-Déplacer/Copier1[2]', #74 ) ;
#189 = CC_DESIGN_DATE_AND_TIME_ASSIGNMENT ( #9, #167, ( #70 ) ) ;
#190 = AXIS2_PLACEMENT_3D ( 'NONE', #38, #226, #2 ) ;
#191 = EDGE_LOOP ( 'NONE', ( #11 ) ) ;
#192 = DIRECTION ( 'NONE',  ( -1.000000000000000000, 0.0000000000000000000, 3.491481338843133355E-15 ) ) ;
#193 = AXIS2_PLACEMENT_3D ( 'NONE', #85, #237, #37 ) ;
#194 = FACE_OUTER_BOUND ( 'NONE', #177, .T. ) ;
#195 = PLANE ( 'NONE',  #222 ) ;
#196 = APPROVAL_STATUS ( 'not_yet_approved' ) ;
#197 = DIRECTION ( 'NONE',  ( -4.275831445896958607E-31, -1.000000000000000000, -1.224646799147353207E-16 ) ) ;
#198 = CIRCLE ( 'NONE', #153, 1.799999999999999600 ) ;
#199 = DIRECTION ( 'NONE',  ( 3.491481338843133355E-15, -0.0000000000000000000, 1.000000000000000000 ) ) ;
#200 = DATE_AND_TIME ( #36, #202 ) ;
#201 = DIRECTION ( 'NONE',  ( 1.000000000000000000, 0.0000000000000000000, -3.491481338843133355E-15 ) ) ;
#202 = LOCAL_TIME ( 11, 46, 5.000000000000000000, #103 ) ;
#203 = CC_DESIGN_SECURITY_CLASSIFICATION ( #232, ( #95 ) ) ;
#204 = ORIENTED_EDGE ( 'NONE', *, *, #120, .T. ) ;
#205 = COORDINATED_UNIVERSAL_TIME_OFFSET ( 1, 0, .AHEAD. ) ;
#206 = CARTESIAN_POINT ( 'NONE',  ( 0.0000000000000000000, 0.0000000000000000000, 0.0000000000000000000 ) ) ;
#207 = ADVANCED_FACE ( 'NONE', ( #242 ), #145, .T. ) ;
#208 = EDGE_LOOP ( 'NONE', ( #100 ) ) ;
#209 = LOCAL_TIME ( 11, 46, 5.000000000000000000, #172 ) ;
#210 = CC_DESIGN_PERSON_AND_ORGANIZATION_ASSIGNMENT ( #75, #115, ( #232 ) ) ;
#211 = EDGE_CURVE ( 'NONE', #26, #26, #78, .T. ) ;
#212 = ORIENTED_EDGE ( 'NONE', *, *, #137, .F. ) ;
#213 = AXIS2_PLACEMENT_3D ( 'NONE', #235, #261, #55 ) ;
#214 = CC_DESIGN_PERSON_AND_ORGANIZATION_ASSIGNMENT ( #43, #27, ( #95 ) ) ;
#215 = FACE_BOUND ( 'NONE', #254, .T. ) ;
#216 = FACE_OUTER_BOUND ( 'NONE', #53, .T. ) ;
#217 = EDGE_CURVE ( 'NONE', #247, #247, #170, .T. ) ;
#218 = APPLICATION_PROTOCOL_DEFINITION ( 'international standard', 'config_control_design', 1994, #49 ) ;
#219 = DIRECTION ( 'NONE',  ( 3.491481338843133355E-15, -1.224646799147353207E-16, 1.000000000000000000 ) ) ;
#220 = FACE_OUTER_BOUND ( 'NONE', #101, .T. ) ;
#221 = DIRECTION ( 'NONE',  ( 0.0000000000000000000, 1.000000000000000000, 0.0000000000000000000 ) ) ;
#222 = AXIS2_PLACEMENT_3D ( 'NONE', #79, #219, #197 ) ;
#223 = APPROVAL_ROLE ( '' ) ;
#224 = FACE_OUTER_BOUND ( 'NONE', #44, .T. ) ;
#225 = EDGE_CURVE ( 'NONE', #69, #69, #117, .T. ) ;
#226 = DIRECTION ( 'NONE',  ( 3.491481338843133355E-15, -0.0000000000000000000, 1.000000000000000000 ) ) ;
#227 = CARTESIAN_POINT ( 'NONE',  ( 1.800000000000030909, 0.0000000000000000000, 8.999999999999994671 ) ) ;
#228 = EDGE_LOOP ( 'NONE', ( #212 ) ) ;
#229 = CC_DESIGN_APPROVAL ( #262, ( #95 ) ) ;
#230 = DATE_AND_TIME ( #231, #209 ) ;
#231 = CALENDAR_DATE ( 2021, 18, 11 ) ;
#232 = SECURITY_CLASSIFICATION ( '', '', #89 ) ;
#233 = ORIENTED_EDGE ( 'NONE', *, *, #225, .T. ) ;
#234 = AXIS2_PLACEMENT_3D ( 'NONE', #260, #52, #40 ) ;
#235 = CARTESIAN_POINT ( 'NONE',  ( -1.282749433769087757E-30, 0.0000000000000000000, -3.673940397442059868E-16 ) ) ;
#236 = CC_DESIGN_DATE_AND_TIME_ASSIGNMENT ( #230, #168, ( #232 ) ) ;
#237 = DIRECTION ( 'NONE',  ( -3.491481338843133355E-15, 1.224646799147353207E-16, -1.000000000000000000 ) ) ;
#238 = ADVANCED_FACE ( 'NONE', ( #263, #224 ), #133, .T. ) ;
#239 = DIRECTION ( 'NONE',  ( 3.491481338843133355E-15, -0.0000000000000000000, 1.000000000000000000 ) ) ;
#240 = APPLICATION_PROTOCOL_DEFINITION ( 'international standard', 'config_control_design', 1994, #110 ) ;
#241 = DIRECTION ( 'NONE',  ( -3.491481338843133355E-15, 1.224646799147353207E-16, -1.000000000000000000 ) ) ;
#242 = FACE_OUTER_BOUND ( 'NONE', #83, .T. ) ;
#243 = AXIS2_PLACEMENT_3D ( 'NONE', #17, #105, #185 ) ;
#244 = APPROVAL_STATUS ( 'not_yet_approved' ) ;
#245 = LOCAL_TIME ( 11, 46, 5.000000000000000000, #205 ) ;
#246 = ORIENTED_EDGE ( 'NONE', *, *, #120, .F. ) ;
#247 = VERTEX_POINT ( 'NONE', #113 ) ;
#248 = APPROVAL_ROLE ( '' ) ;
#249 = CARTESIAN_POINT ( 'NONE',  ( 1.976178437785213353E-13, 1.999999999999988010, 56.59999999999999432 ) ) ;
#250 = PERSON_AND_ORGANIZATION ( #128, #252 ) ;
#251 = ADVANCED_FACE ( 'NONE', ( #21, #127 ), #109, .T. ) ;
#252 = ORGANIZATION ( 'UNSPECIFIED', 'UNSPECIFIED', '' ) ;
#253 = DESIGN_CONTEXT ( 'detailed design', #49, 'design' ) ;
#254 = EDGE_LOOP ( 'NONE', ( #139 ) ) ;
#255 = DIRECTION ( 'NONE',  ( -4.275831445896958607E-31, -1.000000000000000000, -1.224646799147353207E-16 ) ) ;
#256 = EDGE_CURVE ( 'NONE', #7, #7, #107, .T. ) ;
#257 = CIRCLE ( 'NONE', #23, 1.999999999999997335 ) ;
#258 = AXIS2_PLACEMENT_3D ( 'NONE', #86, #239, #201 ) ;
#259 = DIRECTION ( 'NONE',  ( -1.000000000000000000, 0.0000000000000000000, 3.469446951953618922E-15 ) ) ;
#260 = CARTESIAN_POINT ( 'NONE',  ( 0.0000000000000000000, 0.0000000000000000000, 0.0000000000000000000 ) ) ;
#261 = DIRECTION ( 'NONE',  ( 3.491481338843133355E-15, -0.0000000000000000000, 1.000000000000000000 ) ) ;
#262 = APPROVAL ( #244, 'UNSPECIFIED' ) ;
#263 = FACE_BOUND ( 'NONE', #77, .T. ) ;
ENDSEC;
END-ISO-10303-21;
