ISO-10303-21;
HEADER;
FILE_DESCRIPTION (( 'STEP AP203' ),
    '1' );
FILE_NAME ('339014.step',
    '2024-07-12T12:42:36',
    ( '' ),
    ( '' ),
    'SwSTEP 2.0',
    'SolidWorks 2022',
    '' );
FILE_SCHEMA (( 'CONFIG_CONTROL_DESIGN' ));
ENDSEC;

DATA;
#1 = VERTEX_POINT ( 'NONE', #221 ) ;
#2 = DATE_TIME_ROLE ( 'classification_date' ) ;
#3 = DIRECTION ( 'NONE',  ( 0.000000000000000000, 0.000000000000000000, 1.000000000000000000 ) ) ;
#4 = LOCAL_TIME ( 14, 42, 36.00000000000000000, #252 ) ;
#5 = PERSON_AND_ORGANIZATION ( #253, #145 ) ;
#6 = PERSON_AND_ORGANIZATION_ROLE ( 'design_owner' ) ;
#7 = PLANE ( 'NONE',  #84 ) ;
#8 = EDGE_CURVE ( 'NONE', #87, #87, #39, .T. ) ;
#9 = CARTESIAN_POINT ( 'NONE',  ( 4.888073874380386066E-14, 5.624099184981962198E-32, 13.99999999999999822 ) ) ;
#10 = FACE_OUTER_BOUND ( 'NONE', #146, .T. ) ;
#11 = CALENDAR_DATE ( 2024, 12, 7 ) ;
#12 = ADVANCED_FACE ( 'NONE', ( #131, #10 ), #243, .T. ) ;
#13 = AXIS2_PLACEMENT_3D ( 'NONE', #25, #74, #152 ) ;
#14 = EDGE_LOOP ( 'NONE', ( #254 ) ) ;
#15 = ORIENTED_EDGE ( 'NONE', *, *, #45, .F. ) ;
#16 = ORIENTED_EDGE ( 'NONE', *, *, #176, .F. ) ;
#17 = CARTESIAN_POINT ( 'NONE',  ( 1.745740669421567072E-15, 8.000000000000000000, 0.5000000000000001110 ) ) ;
#18 = ADVANCED_FACE ( 'NONE', ( #205 ), #165, .T. ) ;
#19 = EDGE_LOOP ( 'NONE', ( #106 ) ) ;
#20 = DIRECTION ( 'NONE',  ( 0.000000000000000000, 1.000000000000000000, 0.000000000000000000 ) ) ;
#21 = CC_DESIGN_APPROVAL ( #88, ( #73 ) ) ;
#22 = DIRECTION ( 'NONE',  ( -3.491481338843133355E-15, 1.224646799147353207E-16, -1.000000000000000000 ) ) ;
#23 = CYLINDRICAL_SURFACE ( 'NONE', #214, 7.499999999999999112 ) ;
#24 = PLANE ( 'NONE',  #94 ) ;
#25 = CARTESIAN_POINT ( 'NONE',  ( 1.466422162314116009E-13, -5.143516556418883322E-15, 42.00000000000000000 ) ) ;
#26 = ADVANCED_FACE ( 'NONE', ( #216, #92 ), #23, .T. ) ;
#27 = DIRECTION ( 'NONE',  ( -3.491481338843133355E-15, 1.224646799147353207E-16, -1.000000000000000000 ) ) ;
#28 = ORIENTED_EDGE ( 'NONE', *, *, #219, .T. ) ;
#29 = EDGE_LOOP ( 'NONE', ( #229 ) ) ;
#30 = PERSON_AND_ORGANIZATION_ROLE ( 'creator' ) ;
#31 = ORIENTED_EDGE ( 'NONE', *, *, #8, .F. ) ;
#32 = FACE_OUTER_BOUND ( 'NONE', #258, .T. ) ;
#33 = CC_DESIGN_DATE_AND_TIME_ASSIGNMENT ( #82, #108, ( #73 ) ) ;
#34 = EDGE_LOOP ( 'NONE', ( #69 ) ) ;
#35 = AXIS2_PLACEMENT_3D ( 'NONE', #36, #177, #196 ) ;
#36 = CARTESIAN_POINT ( 'NONE',  ( 4.888073874380385435E-14, -1.714505518806294244E-15, 13.99999999999999645 ) ) ;
#37 = APPROVAL_DATE_TIME ( #225, #222 ) ;
#38 = PERSON_AND_ORGANIZATION ( #253, #145 ) ;
#39 = CIRCLE ( 'NONE', #44, 7.500000000000000000 ) ;
#40 = CIRCLE ( 'NONE', #244, 8.000000000000000000 ) ;
#41 = FACE_OUTER_BOUND ( 'NONE', #130, .T. ) ;
#42 = AXIS2_PLACEMENT_3D ( 'NONE', #136, #70, #150 ) ;
#43 = DIRECTION ( 'NONE',  ( -3.491481338843133355E-15, 1.224646799147353207E-16, -1.000000000000000000 ) ) ;
#44 = AXIS2_PLACEMENT_3D ( 'NONE', #134, #188, #149 ) ;
#45 = EDGE_CURVE ( 'NONE', #151, #151, #262, .T. ) ;
#46 = EDGE_LOOP ( 'NONE', ( #71 ) ) ;
#47 = FACE_OUTER_BOUND ( 'NONE', #34, .T. ) ;
#48 = MANIFOLD_SOLID_BREP ( 'Corps-Déplacer/Copier1[2]', #212 ) ;
#49 = ORIENTED_EDGE ( 'NONE', *, *, #45, .T. ) ;
#50 = EDGE_LOOP ( 'NONE', ( #256 ) ) ;
#51 = DIRECTION ( 'NONE',  ( 3.491481338843133355E-15, -1.224646799147353207E-16, 1.000000000000000000 ) ) ;
#52 = CARTESIAN_POINT ( 'NONE',  ( 4.888073874380386066E-14, 5.999039130647428242E-32, 13.99999999999999822 ) ) ;
#53 = AXIS2_PLACEMENT_3D ( 'NONE', #189, #167, #255 ) ;
#54 = PLANE ( 'NONE',  #240 ) ;
#55 = CALENDAR_DATE ( 2024, 12, 7 ) ;
#56 = EDGE_CURVE ( 'NONE', #115, #115, #97, .T. ) ;
#57 = PERSON_AND_ORGANIZATION_ROLE ( 'classification_officer' ) ;
#58 = DIRECTION ( 'NONE',  ( 8.217301096052208642E-31, 1.000000000000000000, 2.312964634635743450E-16 ) ) ;
#59 = AXIS2_PLACEMENT_3D ( 'NONE', #169, #72, #208 ) ;
#60 = VERTEX_POINT ( 'NONE', #199 ) ;
#61 = APPROVAL_STATUS ( 'not_yet_approved' ) ;
#62 = ADVANCED_FACE ( 'NONE', ( #175, #155 ), #119, .T. ) ;
#63 = FACE_OUTER_BOUND ( 'NONE', #66, .T. ) ;
#64 = AXIS2_PLACEMENT_3D ( 'NONE', #209, #111, #20 ) ;
#65 = ORIENTED_EDGE ( 'NONE', *, *, #122, .F. ) ;
#66 = EDGE_LOOP ( 'NONE', ( #109 ) ) ;
#67 = CALENDAR_DATE ( 2024, 12, 7 ) ;
#68 = APPROVAL_DATE_TIME ( #232, #88 ) ;
#69 = ORIENTED_EDGE ( 'NONE', *, *, #260, .T. ) ;
#70 = DIRECTION ( 'NONE',  ( -3.491481338843133355E-15, 1.224646799147353207E-16, -1.000000000000000000 ) ) ;
#71 = ORIENTED_EDGE ( 'NONE', *, *, #219, .F. ) ;
#72 = DIRECTION ( 'NONE',  ( -3.491481338843133355E-15, 1.224646799147353207E-16, -1.000000000000000000 ) ) ;
#73 = PRODUCT_DEFINITION ( 'UNKNOWN', '', #77, #156 ) ;
#74 = DIRECTION ( 'NONE',  ( 3.491481338843133355E-15, -1.224646799147353207E-16, 1.000000000000000000 ) ) ;
#75 = LOCAL_TIME ( 14, 42, 36.00000000000000000, #126 ) ;
#76 = CC_DESIGN_PERSON_AND_ORGANIZATION_ASSIGNMENT ( #235, #30, ( #73 ) ) ;
#77 = PRODUCT_DEFINITION_FORMATION_WITH_SPECIFIED_SOURCE ( 'ANY', '', #233, .NOT_KNOWN. ) ;
#78 = PERSON_AND_ORGANIZATION ( #253, #145 ) ;
#79 = ADVANCED_FACE ( 'NONE', ( #239 ), #54, .F. ) ;
#80 = DIRECTION ( 'NONE',  ( -3.491481338843133355E-15, 1.224646799147353207E-16, -1.000000000000000000 ) ) ;
#81 = APPLICATION_PROTOCOL_DEFINITION ( 'international standard', 'config_control_design', 1994, #174 ) ;
#82 = DATE_AND_TIME ( #228, #4 ) ;
#83 = DIRECTION ( 'NONE',  ( -4.275831445896958607E-31, -1.000000000000000000, -1.224646799147353207E-16 ) ) ;
#84 = AXIS2_PLACEMENT_3D ( 'NONE', #9, #250, #83 ) ;
#85 = CARTESIAN_POINT ( 'NONE',  ( 1.745740669421563719E-15, 0.000000000000000000, 0.4999999999999991673 ) ) ;
#86 = EDGE_LOOP ( 'NONE', ( #231 ) ) ;
#87 = VERTEX_POINT ( 'NONE', #259 ) ;
#88 = APPROVAL ( #61, 'UNSPECIFIED' ) ;
#89 = CYLINDRICAL_SURFACE ( 'NONE', #59, 7.999999999999996447 ) ;
#90 = VERTEX_POINT ( 'NONE', #173 ) ;
#91 = DIRECTION ( 'NONE',  ( 4.275831445896958607E-31, 1.000000000000000000, 1.224646799147353207E-16 ) ) ;
#92 = FACE_OUTER_BOUND ( 'NONE', #237, .T. ) ;
#93 = FACE_OUTER_BOUND ( 'NONE', #171, .T. ) ;
#94 = AXIS2_PLACEMENT_3D ( 'NONE', #52, #51, #194 ) ;
#95 = SECURITY_CLASSIFICATION_LEVEL ( 'unclassified' ) ;
#96 = CARTESIAN_POINT ( 'NONE',  ( 4.888073874380385435E-14, -1.714505518806294244E-15, 13.99999999999999645 ) ) ;
#97 = CIRCLE ( 'NONE', #190, 7.499999999999998224 ) ;
#98 = CC_DESIGN_DATE_AND_TIME_ASSIGNMENT ( #178, #2, ( #215 ) ) ;
#99 = CALENDAR_DATE ( 2024, 12, 7 ) ;
#100 = CARTESIAN_POINT ( 'NONE',  ( 0.000000000000000000, 0.000000000000000000, 0.000000000000000000 ) ) ;
#101 = APPROVAL_STATUS ( 'not_yet_approved' ) ;
#102 =( NAMED_UNIT ( * ) SI_UNIT ( $, .STERADIAN. ) SOLID_ANGLE_UNIT ( ) );
#103 = ADVANCED_BREP_SHAPE_REPRESENTATION ( '339014', ( #210, #48, #113 ), #241 ) ;
#104 = CYLINDRICAL_SURFACE ( 'NONE', #200, 8.000000000000000000 ) ;
#105 = ADVANCED_FACE ( 'NONE', ( #162, #41 ), #104, .T. ) ;
#106 = ORIENTED_EDGE ( 'NONE', *, *, #122, .T. ) ;
#107 = CARTESIAN_POINT ( 'NONE',  ( 4.888073874380386066E-14, 7.499999999999996447, 13.99999999999999822 ) ) ;
#108 = DATE_TIME_ROLE ( 'creation_date' ) ;
#109 = ORIENTED_EDGE ( 'NONE', *, *, #56, .T. ) ;
#110 = FACE_BOUND ( 'NONE', #168, .T. ) ;
#111 = DIRECTION ( 'NONE',  ( -3.491481338843133355E-15, 1.224646799147353207E-16, -1.000000000000000000 ) ) ;
#112 = CC_DESIGN_PERSON_AND_ORGANIZATION_ASSIGNMENT ( #38, #6, ( #233 ) ) ;
#113 = AXIS2_PLACEMENT_3D ( 'NONE', #100, #3, #160 ) ;
#114 = DIRECTION ( 'NONE',  ( -3.491481338843133355E-15, 1.224646799147353207E-16, -1.000000000000000000 ) ) ;
#115 = VERTEX_POINT ( 'NONE', #107 ) ;
#116 = DIRECTION ( 'NONE',  ( -3.491481338843133355E-15, 1.224646799147353207E-16, -1.000000000000000000 ) ) ;
#117 = CC_DESIGN_PERSON_AND_ORGANIZATION_ASSIGNMENT ( #133, #137, ( #77 ) ) ;
#118 = DIRECTION ( 'NONE',  ( 4.275831445896958607E-31, 1.000000000000000000, 1.224646799147353207E-16 ) ) ;
#119 = CONICAL_SURFACE ( 'NONE', #13, 7.500000000000000000, 0.7853981633974430610 ) ;
#120 = UNCERTAINTY_MEASURE_WITH_UNIT (LENGTH_MEASURE( 1.000000000000000082E-05 ), #220, 'distance_accuracy_value', 'NONE');
#121 = SHAPE_DEFINITION_REPRESENTATION ( #226, #103 ) ;
#122 = EDGE_CURVE ( 'NONE', #138, #138, #40, .T. ) ;
#123 = CARTESIAN_POINT ( 'NONE',  ( 1.745740669421563719E-15, -6.123233995736756175E-17, 0.4999999999999991673 ) ) ;
#124 = DIRECTION ( 'NONE',  ( 4.333342374871280669E-31, 1.000000000000000000, 1.219727444046192488E-16 ) ) ;
#125 = CIRCLE ( 'NONE', #184, 7.999999999999994671 ) ;
#126 = COORDINATED_UNIVERSAL_TIME_OFFSET ( 1, 0, .AHEAD. ) ;
#127 = APPLICATION_CONTEXT ( 'configuration controlled 3d designs of mechanical parts and assemblies' ) ;
#128 = DIRECTION ( 'NONE',  ( 4.350518211406125841E-31, 1.000000000000000000, 1.224646799147353207E-16 ) ) ;
#129 = APPROVAL_PERSON_ORGANIZATION ( #163, #158, #143 ) ;
#130 = EDGE_LOOP ( 'NONE', ( #65 ) ) ;
#131 = FACE_OUTER_BOUND ( 'NONE', #19, .T. ) ;
#132 = DIRECTION ( 'NONE',  ( 0.000000000000000000, 1.000000000000000000, 0.000000000000000000 ) ) ;
#133 = PERSON_AND_ORGANIZATION ( #253, #145 ) ;
#134 = CARTESIAN_POINT ( 'NONE',  ( -3.206873584422719042E-30, 1.124819836996393096E-31, -9.184850993605147944E-16 ) ) ;
#135 = DIRECTION ( 'NONE',  ( 0.000000000000000000, 1.000000000000000000, 0.000000000000000000 ) ) ;
#136 = CARTESIAN_POINT ( 'NONE',  ( 3.212162831735682182E-13, -1.126675055215564941E-14, 92.00000000000000000 ) ) ;
#137 = PERSON_AND_ORGANIZATION_ROLE ( 'design_supplier' ) ;
#138 = VERTEX_POINT ( 'NONE', #17 ) ;
#139 = APPROVAL_PERSON_ORGANIZATION ( #247, #88, #141 ) ;
#140 = COORDINATED_UNIVERSAL_TIME_OFFSET ( 1, 0, .AHEAD. ) ;
#141 = APPROVAL_ROLE ( '' ) ;
#142 = APPLICATION_PROTOCOL_DEFINITION ( 'international standard', 'config_control_design', 1994, #127 ) ;
#143 = APPROVAL_ROLE ( '' ) ;
#144 = AXIS2_PLACEMENT_3D ( 'NONE', #85, #43, #128 ) ;
#145 = ORGANIZATION ( 'UNSPECIFIED', 'UNSPECIFIED', '' ) ;
#146 = EDGE_LOOP ( 'NONE', ( #31 ) ) ;
#147 = APPROVAL_DATE_TIME ( #181, #158 ) ;
#148 = ORIENTED_EDGE ( 'NONE', *, *, #56, .F. ) ;
#149 = DIRECTION ( 'NONE',  ( 4.275831445896958607E-31, 1.000000000000000000, 1.224646799147352961E-16 ) ) ;
#150 = DIRECTION ( 'NONE',  ( 0.000000000000000000, 1.000000000000000000, 0.000000000000000000 ) ) ;
#151 = VERTEX_POINT ( 'NONE', #211 ) ;
#152 = DIRECTION ( 'NONE',  ( 0.000000000000000000, -1.000000000000000000, 0.000000000000000000 ) ) ;
#153 = CLOSED_SHELL ( 'NONE', ( #187, #26, #62, #195, #204, #79 ) ) ;
#154 = CARTESIAN_POINT ( 'NONE',  ( 1.466422162314116009E-13, -5.143516556418883322E-15, 42.00000000000000000 ) ) ;
#155 = FACE_BOUND ( 'NONE', #14, .T. ) ;
#156 = DESIGN_CONTEXT ( 'detailed design', #174, 'design' ) ;
#157 = CARTESIAN_POINT ( 'NONE',  ( 3.212162831735682182E-13, 6.999999999999989342, 92.00000000000000000 ) ) ;
#158 = APPROVAL ( #186, 'UNSPECIFIED' ) ;
#159 = LOCAL_TIME ( 14, 42, 36.00000000000000000, #140 ) ;
#160 = DIRECTION ( 'NONE',  ( 1.000000000000000000, 0.000000000000000000, 0.000000000000000000 ) ) ;
#161 = CC_DESIGN_SECURITY_CLASSIFICATION ( #215, ( #77 ) ) ;
#162 = FACE_OUTER_BOUND ( 'NONE', #191, .T. ) ;
#163 = PERSON_AND_ORGANIZATION ( #253, #145 ) ;
#164 = FACE_OUTER_BOUND ( 'NONE', #192, .T. ) ;
#165 = PLANE ( 'NONE',  #53 ) ;
#166 = CC_DESIGN_APPROVAL ( #158, ( #77 ) ) ;
#167 = DIRECTION ( 'NONE',  ( -3.491481338843133355E-15, 1.224646799147353207E-16, -1.000000000000000000 ) ) ;
#168 = EDGE_LOOP ( 'NONE', ( #28 ) ) ;
#169 = CARTESIAN_POINT ( 'NONE',  ( 0.000000000000000000, 0.000000000000000000, 0.000000000000000000 ) ) ;
#170 = AXIS2_PLACEMENT_3D ( 'NONE', #242, #22, #135 ) ;
#171 = EDGE_LOOP ( 'NONE', ( #15 ) ) ;
#172 = PERSON_AND_ORGANIZATION_ROLE ( 'creator' ) ;
#173 = CARTESIAN_POINT ( 'NONE',  ( 1.483879569008331865E-13, 7.999999999999989342, 42.50000000000000000 ) ) ;
#174 = APPLICATION_CONTEXT ( 'configuration controlled 3d designs of mechanical parts and assemblies' ) ;
#175 = FACE_OUTER_BOUND ( 'NONE', #50, .T. ) ;
#176 = EDGE_CURVE ( 'NONE', #90, #90, #125, .T. ) ;
#177 = DIRECTION ( 'NONE',  ( -3.491481338843133355E-15, 1.224646799147353207E-16, -1.000000000000000000 ) ) ;
#178 = DATE_AND_TIME ( #55, #159 ) ;
#179 = APPROVAL_PERSON_ORGANIZATION ( #245, #222, #185 ) ;
#180 = DIRECTION ( 'NONE',  ( -3.491481338843133355E-15, 1.224646799147353207E-16, -1.000000000000000000 ) ) ;
#181 = DATE_AND_TIME ( #11, #75 ) ;
#182 = DIRECTION ( 'NONE',  ( 0.000000000000000000, 1.000000000000000000, 0.000000000000000000 ) ) ;
#183 = CARTESIAN_POINT ( 'NONE',  ( 1.483879569008331865E-13, -5.204748896376250896E-15, 42.50000000000000000 ) ) ;
#184 = AXIS2_PLACEMENT_3D ( 'NONE', #183, #80, #182 ) ;
#185 = APPROVAL_ROLE ( '' ) ;
#186 = APPROVAL_STATUS ( 'not_yet_approved' ) ;
#187 = ADVANCED_FACE ( 'NONE', ( #63 ), #7, .F. ) ;
#188 = DIRECTION ( 'NONE',  ( -3.491481338843133355E-15, 1.224646799147353207E-16, -1.000000000000000000 ) ) ;
#189 = CARTESIAN_POINT ( 'NONE',  ( -1.603436792211359521E-30, 5.624099184981965482E-32, -4.592425496802573972E-16 ) ) ;
#190 = AXIS2_PLACEMENT_3D ( 'NONE', #96, #27, #58 ) ;
#191 = EDGE_LOOP ( 'NONE', ( #49 ) ) ;
#192 = EDGE_LOOP ( 'NONE', ( #16 ) ) ;
#193 = LOCAL_TIME ( 14, 42, 36.00000000000000000, #206 ) ;
#194 = DIRECTION ( 'NONE',  ( -4.275831445896958607E-31, -1.000000000000000000, -1.224646799147353207E-16 ) ) ;
#195 = ADVANCED_FACE ( 'NONE', ( #164, #47 ), #89, .T. ) ;
#196 = DIRECTION ( 'NONE',  ( 7.703719777548941661E-31, 1.000000000000000000, 2.168404344971008375E-16 ) ) ;
#197 = LOCAL_TIME ( 14, 42, 36.00000000000000000, #251 ) ;
#198 = ADVANCED_FACE ( 'NONE', ( #93 ), #24, .T. ) ;
#199 = CARTESIAN_POINT ( 'NONE',  ( 3.177248018347251480E-13, 7.999999999999989342, 91.00000000000000000 ) ) ;
#200 = AXIS2_PLACEMENT_3D ( 'NONE', #227, #180, #118 ) ;
#201 = MECHANICAL_CONTEXT ( 'NONE', #127, 'mechanical' ) ;
#202 = VERTEX_POINT ( 'NONE', #157 ) ;
#203 = AXIS2_PLACEMENT_3D ( 'NONE', #154, #238, #132 ) ;
#204 = ADVANCED_FACE ( 'NONE', ( #32, #110 ), #263, .T. ) ;
#205 = FACE_OUTER_BOUND ( 'NONE', #29, .T. ) ;
#206 = COORDINATED_UNIVERSAL_TIME_OFFSET ( 1, 0, .AHEAD. ) ;
#207 = CIRCLE ( 'NONE', #64, 8.000000000000000000 ) ;
#208 = DIRECTION ( 'NONE',  ( 4.275831445896958607E-31, 1.000000000000000000, 1.224646799147353207E-16 ) ) ;
#209 = CARTESIAN_POINT ( 'NONE',  ( 3.177248018347251480E-13, -1.114428587224091426E-14, 91.00000000000000000 ) ) ;
#210 = MANIFOLD_SOLID_BREP ( 'Corps-Déplacer/Copier1[1]', #153 ) ;
#211 = CARTESIAN_POINT ( 'NONE',  ( 4.888073874380386066E-14, 8.000000000000000000, 13.99999999999999822 ) ) ;
#212 = CLOSED_SHELL ( 'NONE', ( #18, #12, #105, #198 ) ) ;
#213 = CC_DESIGN_PERSON_AND_ORGANIZATION_ASSIGNMENT ( #78, #172, ( #77 ) ) ;
#214 = AXIS2_PLACEMENT_3D ( 'NONE', #261, #114, #218 ) ;
#215 = SECURITY_CLASSIFICATION ( '', '', #95 ) ;
#216 = FACE_OUTER_BOUND ( 'NONE', #86, .T. ) ;
#217 = CARTESIAN_POINT ( 'NONE',  ( 3.212162831735682182E-13, 5.249159239316485206E-32, 92.00000000000000000 ) ) ;
#218 = DIRECTION ( 'NONE',  ( 4.275831445896959482E-31, 1.000000000000000000, 1.224646799147353207E-16 ) ) ;
#219 = EDGE_CURVE ( 'NONE', #202, #202, #248, .T. ) ;
#220 =( LENGTH_UNIT ( ) NAMED_UNIT ( * ) SI_UNIT ( .MILLI., .METRE. ) );
#221 = CARTESIAN_POINT ( 'NONE',  ( 1.466422162314116009E-13, 7.499999999999994671, 42.00000000000000000 ) ) ;
#222 = APPROVAL ( #101, 'UNSPECIFIED' ) ;
#223 = DIRECTION ( 'NONE',  ( -3.491481338843133355E-15, 1.224646799147353207E-16, -1.000000000000000000 ) ) ;
#224 =( NAMED_UNIT ( * ) PLANE_ANGLE_UNIT ( ) SI_UNIT ( $, .RADIAN. ) );
#225 = DATE_AND_TIME ( #99, #197 ) ;
#226 = PRODUCT_DEFINITION_SHAPE ( 'NONE', 'NONE',  #73 ) ;
#227 = CARTESIAN_POINT ( 'NONE',  ( 0.000000000000000000, 0.000000000000000000, 0.000000000000000000 ) ) ;
#228 = CALENDAR_DATE ( 2024, 12, 7 ) ;
#229 = ORIENTED_EDGE ( 'NONE', *, *, #8, .T. ) ;
#230 = EDGE_CURVE ( 'NONE', #1, #1, #257, .T. ) ;
#231 = ORIENTED_EDGE ( 'NONE', *, *, #230, .T. ) ;
#232 = DATE_AND_TIME ( #67, #193 ) ;
#233 = PRODUCT ( '339014', '339014', '', ( #201 ) ) ;
#234 = ORIENTED_EDGE ( 'NONE', *, *, #260, .F. ) ;
#235 = PERSON_AND_ORGANIZATION ( #253, #145 ) ;
#236 = CC_DESIGN_APPROVAL ( #222, ( #215 ) ) ;
#237 = EDGE_LOOP ( 'NONE', ( #148 ) ) ;
#238 = DIRECTION ( 'NONE',  ( -3.491481338843133355E-15, 1.224646799147353207E-16, -1.000000000000000000 ) ) ;
#239 = FACE_OUTER_BOUND ( 'NONE', #46, .T. ) ;
#240 = AXIS2_PLACEMENT_3D ( 'NONE', #217, #116, #91 ) ;
#241 =( GEOMETRIC_REPRESENTATION_CONTEXT ( 3 ) GLOBAL_UNCERTAINTY_ASSIGNED_CONTEXT ( ( #120 ) ) GLOBAL_UNIT_ASSIGNED_CONTEXT ( ( #220, #224, #102 ) ) REPRESENTATION_CONTEXT ( 'NONE', 'WORKASPACE' ) );
#242 = CARTESIAN_POINT ( 'NONE',  ( 3.212162831735682182E-13, -1.126675055215564941E-14, 92.00000000000000000 ) ) ;
#243 = TOROIDAL_SURFACE ( 'NONE', #144, 7.500000000000000000, 0.5000000000000002220 ) ;
#244 = AXIS2_PLACEMENT_3D ( 'NONE', #123, #223, #124 ) ;
#245 = PERSON_AND_ORGANIZATION ( #253, #145 ) ;
#246 = CC_DESIGN_PERSON_AND_ORGANIZATION_ASSIGNMENT ( #5, #57, ( #215 ) ) ;
#247 = PERSON_AND_ORGANIZATION ( #253, #145 ) ;
#248 = CIRCLE ( 'NONE', #170, 7.000000000000000888 ) ;
#249 = PRODUCT_RELATED_PRODUCT_CATEGORY ( 'detail', '', ( #233 ) ) ;
#250 = DIRECTION ( 'NONE',  ( 3.491481338843133355E-15, -1.224646799147353207E-16, 1.000000000000000000 ) ) ;
#251 = COORDINATED_UNIVERSAL_TIME_OFFSET ( 1, 0, .AHEAD. ) ;
#252 = COORDINATED_UNIVERSAL_TIME_OFFSET ( 1, 0, .AHEAD. ) ;
#253 = PERSON ( 'UNSPECIFIED', 'UNSPECIFIED', 'UNSPECIFIED', ('UNSPECIFIED'), ('UNSPECIFIED'), ('UNSPECIFIED') ) ;
#254 = ORIENTED_EDGE ( 'NONE', *, *, #230, .F. ) ;
#255 = DIRECTION ( 'NONE',  ( 4.275831445896958607E-31, 1.000000000000000000, 1.224646799147353207E-16 ) ) ;
#256 = ORIENTED_EDGE ( 'NONE', *, *, #176, .T. ) ;
#257 = CIRCLE ( 'NONE', #203, 7.500000000000000000 ) ;
#258 = EDGE_LOOP ( 'NONE', ( #234 ) ) ;
#259 = CARTESIAN_POINT ( 'NONE',  ( 0.000000000000000000, 7.500000000000000000, 0.000000000000000000 ) ) ;
#260 = EDGE_CURVE ( 'NONE', #60, #60, #207, .T. ) ;
#261 = CARTESIAN_POINT ( 'NONE',  ( 0.000000000000000000, 0.000000000000000000, 0.000000000000000000 ) ) ;
#262 = CIRCLE ( 'NONE', #35, 8.000000000000001776 ) ;
#263 = CONICAL_SURFACE ( 'NONE', #42, 7.000000000000000888, 0.7853981633974473908 ) ;
ENDSEC;
END-ISO-10303-21;
