ISO-10303-21;
HEADER;
FILE_DESCRIPTION (( 'STEP AP203' ),
    '1' );
FILE_NAME ('339012.step',
    '2024-07-12T12:42:35',
    ( '' ),
    ( '' ),
    'SwSTEP 2.0',
    'SolidWorks 2022',
    '' );
FILE_SCHEMA (( 'CONFIG_CONTROL_DESIGN' ));
ENDSEC;

DATA;
#1 = CARTESIAN_POINT ( 'NONE',  ( 4.189777606611760026E-14, 5.249159239316498343E-32, 12.00000000000000000 ) ) ;
#2 = DIRECTION ( 'NONE',  ( 0.000000000000000000, 0.000000000000000000, 1.000000000000000000 ) ) ;
#3 = FACE_OUTER_BOUND ( 'NONE', #55, .T. ) ;
#4 =( GEOMETRIC_REPRESENTATION_CONTEXT ( 3 ) GLOBAL_UNCERTAINTY_ASSIGNED_CONTEXT ( ( #245 ) ) GLOBAL_UNIT_ASSIGNED_CONTEXT ( ( #161, #181, #28 ) ) REPRESENTATION_CONTEXT ( 'NONE', 'WORKASPACE' ) );
#5 = MECHANICAL_CONTEXT ( 'NONE', #207, 'mechanical' ) ;
#6 = PERSON_AND_ORGANIZATION_ROLE ( 'design_owner' ) ;
#7 = PLANE ( 'NONE',  #238 ) ;
#8 = EDGE_LOOP ( 'NONE', ( #82 ) ) ;
#9 = APPROVAL_ROLE ( '' ) ;
#10 = APPROVAL_PERSON_ORGANIZATION ( #100, #192, #9 ) ;
#11 = ORIENTED_EDGE ( 'NONE', *, *, #90, .T. ) ;
#12 = AXIS2_PLACEMENT_3D ( 'NONE', #76, #228, #156 ) ;
#13 = CARTESIAN_POINT ( 'NONE',  ( 8.379555213223520053E-14, 6.499999999999997335, 24.00000000000000000 ) ) ;
#14 = CIRCLE ( 'NONE', #258, 6.999999999999999112 ) ;
#15 = PRODUCT ( '339012', '339012', '', ( #5 ) ) ;
#16 = FACE_OUTER_BOUND ( 'NONE', #169, .T. ) ;
#17 = DIRECTION ( 'NONE',  ( -3.491481338843133355E-15, 1.224646799147353207E-16, -1.000000000000000000 ) ) ;
#18 = LOCAL_TIME ( 14, 42, 35.00000000000000000, #40 ) ;
#19 = ADVANCED_FACE ( 'NONE', ( #182 ), #234, .F. ) ;
#20 = DIRECTION ( 'NONE',  ( 4.275831445896958607E-31, 1.000000000000000000, 1.224646799147353207E-16 ) ) ;
#21 = FACE_OUTER_BOUND ( 'NONE', #188, .T. ) ;
#22 = ORIENTED_EDGE ( 'NONE', *, *, #115, .T. ) ;
#23 = LOCAL_TIME ( 14, 42, 35.00000000000000000, #46 ) ;
#24 = FACE_OUTER_BOUND ( 'NONE', #102, .T. ) ;
#25 = ADVANCED_FACE ( 'NONE', ( #239 ), #213, .F. ) ;
#26 = CARTESIAN_POINT ( 'NONE',  ( 4.189777606611760026E-14, 6.999999999999998224, 12.00000000000000000 ) ) ;
#27 = ORIENTED_EDGE ( 'NONE', *, *, #47, .T. ) ;
#28 =( NAMED_UNIT ( * ) SI_UNIT ( $, .STERADIAN. ) SOLID_ANGLE_UNIT ( ) );
#29 = CALENDAR_DATE ( 2024, 12, 7 ) ;
#30 = CARTESIAN_POINT ( 'NONE',  ( 0.000000000000000000, 0.000000000000000000, 0.000000000000000000 ) ) ;
#31 = CC_DESIGN_PERSON_AND_ORGANIZATION_ASSIGNMENT ( #67, #214, ( #51 ) ) ;
#32 = PERSON_AND_ORGANIZATION ( #123, #110 ) ;
#33 = DIRECTION ( 'NONE',  ( 4.351703715620556956E-31, 1.000000000000000000, 1.224646799147353207E-16 ) ) ;
#34 = EDGE_CURVE ( 'NONE', #107, #107, #95, .T. ) ;
#35 = FACE_OUTER_BOUND ( 'NONE', #119, .T. ) ;
#36 = ORIENTED_EDGE ( 'NONE', *, *, #34, .T. ) ;
#37 = AXIS2_PLACEMENT_3D ( 'NONE', #132, #2, #247 ) ;
#38 = DIRECTION ( 'NONE',  ( 0.000000000000000000, 1.000000000000000000, 0.000000000000000000 ) ) ;
#39 = FACE_OUTER_BOUND ( 'NONE', #69, .T. ) ;
#40 = COORDINATED_UNIVERSAL_TIME_OFFSET ( 1, 0, .AHEAD. ) ;
#41 = DIRECTION ( 'NONE',  ( -3.491481338843133355E-15, 1.224646799147353207E-16, -1.000000000000000000 ) ) ;
#42 = SHAPE_DEFINITION_REPRESENTATION ( #91, #74 ) ;
#43 = EDGE_LOOP ( 'NONE', ( #36 ) ) ;
#44 = MANIFOLD_SOLID_BREP ( 'Corps-Déplacer/Copier1[1]', #131 ) ;
#45 = PERSON_AND_ORGANIZATION ( #123, #110 ) ;
#46 = COORDINATED_UNIVERSAL_TIME_OFFSET ( 1, 0, .AHEAD. ) ;
#47 = EDGE_CURVE ( 'NONE', #80, #80, #133, .T. ) ;
#48 = DIRECTION ( 'NONE',  ( -3.491481338843133355E-15, 1.224646799147353207E-16, -1.000000000000000000 ) ) ;
#49 = CARTESIAN_POINT ( 'NONE',  ( 8.554129280165677352E-14, -3.000384657911015469E-15, 24.50000000000000000 ) ) ;
#50 = DIRECTION ( 'NONE',  ( 0.000000000000000000, 1.000000000000000000, 0.000000000000000000 ) ) ;
#51 = SECURITY_CLASSIFICATION ( '', '', #260 ) ;
#52 = EDGE_LOOP ( 'NONE', ( #242 ) ) ;
#53 = PERSON_AND_ORGANIZATION ( #123, #110 ) ;
#54 = DATE_AND_TIME ( #92, #66 ) ;
#55 = EDGE_LOOP ( 'NONE', ( #165 ) ) ;
#56 = DIRECTION ( 'NONE',  ( 0.000000000000000000, 1.000000000000000000, 0.000000000000000000 ) ) ;
#57 = DIRECTION ( 'NONE',  ( -3.491481338843133355E-15, 1.224646799147353207E-16, -1.000000000000000000 ) ) ;
#58 = DIRECTION ( 'NONE',  ( 3.491481338843133355E-15, -1.224646799147353207E-16, 1.000000000000000000 ) ) ;
#59 = AXIS2_PLACEMENT_3D ( 'NONE', #236, #212, #33 ) ;
#60 = APPROVAL_DATE_TIME ( #253, #192 ) ;
#61 = ADVANCED_FACE ( 'NONE', ( #35, #21 ), #150, .T. ) ;
#62 = ORIENTED_EDGE ( 'NONE', *, *, #148, .T. ) ;
#63 = APPLICATION_PROTOCOL_DEFINITION ( 'international standard', 'config_control_design', 1994, #244 ) ;
#64 = CONICAL_SURFACE ( 'NONE', #116, 6.500000000000000000, 0.7853981633974405074 ) ;
#65 = FACE_OUTER_BOUND ( 'NONE', #52, .T. ) ;
#66 = LOCAL_TIME ( 14, 42, 35.00000000000000000, #202 ) ;
#67 = PERSON_AND_ORGANIZATION ( #123, #110 ) ;
#68 = CARTESIAN_POINT ( 'NONE',  ( -2.717106461051927801E-30, 9.530326550656483687E-32, -7.782102200644192077E-16 ) ) ;
#69 = EDGE_LOOP ( 'NONE', ( #11 ) ) ;
#70 = CC_DESIGN_PERSON_AND_ORGANIZATION_ASSIGNMENT ( #32, #195, ( #79 ) ) ;
#71 = AXIS2_PLACEMENT_3D ( 'NONE', #144, #41, #38 ) ;
#72 = DIRECTION ( 'NONE',  ( 0.000000000000000000, 1.000000000000000000, 0.000000000000000000 ) ) ;
#73 = PRODUCT_DEFINITION ( 'UNKNOWN', '', #79, #219 ) ;
#74 = ADVANCED_BREP_SHAPE_REPRESENTATION ( '339012', ( #44, #216, #37 ), #4 ) ;
#75 = AXIS2_PLACEMENT_3D ( 'NONE', #30, #179, #99 ) ;
#76 = CARTESIAN_POINT ( 'NONE',  ( 2.897929511239800811E-13, 4.874219293651022994E-32, 83.00000000000000000 ) ) ;
#77 = FACE_BOUND ( 'NONE', #221, .T. ) ;
#78 = DIRECTION ( 'NONE',  ( 0.000000000000000000, 1.000000000000000000, 0.000000000000000000 ) ) ;
#79 = PRODUCT_DEFINITION_FORMATION_WITH_SPECIFIED_SOURCE ( 'ANY', '', #15, .NOT_KNOWN. ) ;
#80 = VERTEX_POINT ( 'NONE', #167 ) ;
#81 = CLOSED_SHELL ( 'NONE', ( #104, #231, #61, #134 ) ) ;
#82 = ORIENTED_EDGE ( 'NONE', *, *, #47, .F. ) ;
#83 = PERSON_AND_ORGANIZATION_ROLE ( 'creator' ) ;
#84 = APPLICATION_PROTOCOL_DEFINITION ( 'international standard', 'config_control_design', 1994, #207 ) ;
#85 = DIRECTION ( 'NONE',  ( -3.491481338843133355E-15, 1.224646799147353207E-16, -1.000000000000000000 ) ) ;
#86 = CARTESIAN_POINT ( 'NONE',  ( 4.189777606611760026E-14, 4.874219293651034489E-32, 12.00000000000000000 ) ) ;
#87 = CARTESIAN_POINT ( 'NONE',  ( 8.379555213223520053E-14, -2.939152317953647894E-15, 24.00000000000000000 ) ) ;
#88 = EDGE_LOOP ( 'NONE', ( #111 ) ) ;
#89 = CARTESIAN_POINT ( 'NONE',  ( 2.897929511239800811E-13, -1.016456843292303150E-14, 83.00000000000000000 ) ) ;
#90 = EDGE_CURVE ( 'NONE', #191, #191, #14, .T. ) ;
#91 = PRODUCT_DEFINITION_SHAPE ( 'NONE', 'NONE',  #73 ) ;
#92 = CALENDAR_DATE ( 2024, 12, 7 ) ;
#93 = ORIENTED_EDGE ( 'NONE', *, *, #143, .T. ) ;
#94 = FACE_OUTER_BOUND ( 'NONE', #114, .T. ) ;
#95 = CIRCLE ( 'NONE', #171, 6.500000000000000888 ) ;
#96 = CYLINDRICAL_SURFACE ( 'NONE', #75, 6.500000000000000000 ) ;
#97 = EDGE_CURVE ( 'NONE', #235, #235, #137, .T. ) ;
#98 = DATE_AND_TIME ( #29, #18 ) ;
#99 = DIRECTION ( 'NONE',  ( 4.275831445896958607E-31, 1.000000000000000000, 1.224646799147353207E-16 ) ) ;
#100 = PERSON_AND_ORGANIZATION ( #123, #110 ) ;
#101 = FACE_OUTER_BOUND ( 'NONE', #177, .T. ) ;
#102 = EDGE_LOOP ( 'NONE', ( #121 ) ) ;
#103 = APPROVAL_STATUS ( 'not_yet_approved' ) ;
#104 = ADVANCED_FACE ( 'NONE', ( #130 ), #217, .T. ) ;
#105 = APPROVAL ( #135, 'UNSPECIFIED' ) ;
#106 = DIRECTION ( 'NONE',  ( 4.275831445896958607E-31, 1.000000000000000000, 1.224646799147353207E-16 ) ) ;
#107 = VERTEX_POINT ( 'NONE', #237 ) ;
#108 = DIRECTION ( 'NONE',  ( -4.275831445896958607E-31, -1.000000000000000000, -1.224646799147353207E-16 ) ) ;
#109 = CARTESIAN_POINT ( 'NONE',  ( 1.745740669421563719E-15, -6.123233995736756175E-17, 0.4999999999999991673 ) ) ;
#110 = ORGANIZATION ( 'UNSPECIFIED', 'UNSPECIFIED', '' ) ;
#111 = ORIENTED_EDGE ( 'NONE', *, *, #115, .F. ) ;
#112 = CARTESIAN_POINT ( 'NONE',  ( -1.358553230525963900E-30, 4.765163275328241843E-32, -3.891051100322096038E-16 ) ) ;
#113 = CC_DESIGN_DATE_AND_TIME_ASSIGNMENT ( #98, #141, ( #73 ) ) ;
#114 = EDGE_LOOP ( 'NONE', ( #185 ) ) ;
#115 = EDGE_CURVE ( 'NONE', #254, #254, #193, .T. ) ;
#116 = AXIS2_PLACEMENT_3D ( 'NONE', #160, #58, #248 ) ;
#117 = AXIS2_PLACEMENT_3D ( 'NONE', #49, #129, #50 ) ;
#118 = APPROVAL_DATE_TIME ( #54, #105 ) ;
#119 = EDGE_LOOP ( 'NONE', ( #122 ) ) ;
#120 = APPROVAL_STATUS ( 'not_yet_approved' ) ;
#121 = ORIENTED_EDGE ( 'NONE', *, *, #148, .F. ) ;
#122 = ORIENTED_EDGE ( 'NONE', *, *, #209, .T. ) ;
#123 = PERSON ( 'UNSPECIFIED', 'UNSPECIFIED', 'UNSPECIFIED', ('UNSPECIFIED'), ('UNSPECIFIED'), ('UNSPECIFIED') ) ;
#124 = CARTESIAN_POINT ( 'NONE',  ( 8.554129280165677352E-14, 6.999999999999989342, 24.50000000000000000 ) ) ;
#125 = VERTEX_POINT ( 'NONE', #250 ) ;
#126 = AXIS2_PLACEMENT_3D ( 'NONE', #142, #229, #56 ) ;
#127 = ADVANCED_FACE ( 'NONE', ( #16, #77 ), #194, .T. ) ;
#128 = CARTESIAN_POINT ( 'NONE',  ( 0.000000000000000000, 0.000000000000000000, 0.000000000000000000 ) ) ;
#129 = DIRECTION ( 'NONE',  ( -3.491481338843133355E-15, 1.224646799147353207E-16, -1.000000000000000000 ) ) ;
#130 = FACE_OUTER_BOUND ( 'NONE', #43, .T. ) ;
#131 = CLOSED_SHELL ( 'NONE', ( #25, #184, #198, #172, #127, #19 ) ) ;
#132 = CARTESIAN_POINT ( 'NONE',  ( 0.000000000000000000, 0.000000000000000000, 0.000000000000000000 ) ) ;
#133 = CIRCLE ( 'NONE', #208, 6.500000000000000888 ) ;
#134 = ADVANCED_FACE ( 'NONE', ( #186 ), #7, .T. ) ;
#135 = APPROVAL_STATUS ( 'not_yet_approved' ) ;
#136 = DIRECTION ( 'NONE',  ( -3.491481338843133355E-15, 1.224646799147353207E-16, -1.000000000000000000 ) ) ;
#137 = CIRCLE ( 'NONE', #117, 6.999999999999992006 ) ;
#138 = DIRECTION ( 'NONE',  ( -3.491481338843133355E-15, 1.224646799147353207E-16, -1.000000000000000000 ) ) ;
#139 = PERSON_AND_ORGANIZATION ( #123, #110 ) ;
#140 = AXIS2_PLACEMENT_3D ( 'NONE', #128, #17, #261 ) ;
#141 = DATE_TIME_ROLE ( 'creation_date' ) ;
#142 = CARTESIAN_POINT ( 'NONE',  ( 4.189777606611760026E-14, -1.469576158976823947E-15, 12.00000000000000000 ) ) ;
#143 = EDGE_CURVE ( 'NONE', #125, #125, #162, .T. ) ;
#144 = CARTESIAN_POINT ( 'NONE',  ( 2.897929511239800811E-13, -1.016456843292303150E-14, 83.00000000000000000 ) ) ;
#145 = CARTESIAN_POINT ( 'NONE',  ( 1.745740669421566678E-15, 6.999999999999999112, 0.5000000000000000000 ) ) ;
#146 = LOCAL_TIME ( 14, 42, 35.00000000000000000, #240 ) ;
#147 = DATE_AND_TIME ( #256, #146 ) ;
#148 = EDGE_CURVE ( 'NONE', #211, #211, #243, .T. ) ;
#149 = LOCAL_TIME ( 14, 42, 35.00000000000000000, #189 ) ;
#150 = CYLINDRICAL_SURFACE ( 'NONE', #140, 6.999999999999999112 ) ;
#151 = DIRECTION ( 'NONE',  ( 4.402125587170824932E-31, 1.000000000000000000, 1.239088197126290817E-16 ) ) ;
#152 = EDGE_LOOP ( 'NONE', ( #62 ) ) ;
#153 = AXIS2_PLACEMENT_3D ( 'NONE', #112, #197, #106 ) ;
#154 = AXIS2_PLACEMENT_3D ( 'NONE', #251, #57, #78 ) ;
#155 = APPROVAL_ROLE ( '' ) ;
#156 = DIRECTION ( 'NONE',  ( 4.275831445896958607E-31, 1.000000000000000000, 1.224646799147353207E-16 ) ) ;
#157 = EDGE_LOOP ( 'NONE', ( #93 ) ) ;
#158 = CYLINDRICAL_SURFACE ( 'NONE', #263, 6.999999999999995559 ) ;
#159 = AXIS2_PLACEMENT_3D ( 'NONE', #87, #136, #175 ) ;
#160 = CARTESIAN_POINT ( 'NONE',  ( 8.379555213223520053E-14, -2.939152317953647894E-15, 24.00000000000000000 ) ) ;
#161 =( LENGTH_UNIT ( ) NAMED_UNIT ( * ) SI_UNIT ( .MILLI., .METRE. ) );
#162 = CIRCLE ( 'NONE', #227, 7.000000000000000000 ) ;
#163 = APPROVAL_PERSON_ORGANIZATION ( #255, #176, #232 ) ;
#164 = CC_DESIGN_PERSON_AND_ORGANIZATION_ASSIGNMENT ( #45, #196, ( #79 ) ) ;
#165 = ORIENTED_EDGE ( 'NONE', *, *, #97, .T. ) ;
#166 = CALENDAR_DATE ( 2024, 12, 7 ) ;
#167 = CARTESIAN_POINT ( 'NONE',  ( 2.897929511239800811E-13, 6.499999999999990230, 83.00000000000000000 ) ) ;
#168 = AXIS2_PLACEMENT_3D ( 'NONE', #86, #173, #108 ) ;
#169 = EDGE_LOOP ( 'NONE', ( #252 ) ) ;
#170 = VERTEX_POINT ( 'NONE', #26 ) ;
#171 = AXIS2_PLACEMENT_3D ( 'NONE', #68, #48, #20 ) ;
#172 = ADVANCED_FACE ( 'NONE', ( #94, #226 ), #158, .T. ) ;
#173 = DIRECTION ( 'NONE',  ( 3.491481338843133355E-15, -1.224646799147353207E-16, 1.000000000000000000 ) ) ;
#174 = CC_DESIGN_PERSON_AND_ORGANIZATION_ASSIGNMENT ( #53, #6, ( #15 ) ) ;
#175 = DIRECTION ( 'NONE',  ( 0.000000000000000000, 1.000000000000000000, 0.000000000000000000 ) ) ;
#176 = APPROVAL ( #120, 'UNSPECIFIED' ) ;
#177 = EDGE_LOOP ( 'NONE', ( #22 ) ) ;
#178 = ORIENTED_EDGE ( 'NONE', *, *, #90, .F. ) ;
#179 = DIRECTION ( 'NONE',  ( -3.491481338843133355E-15, 1.224646799147353207E-16, -1.000000000000000000 ) ) ;
#180 = PRODUCT_RELATED_PRODUCT_CATEGORY ( 'detail', '', ( #15 ) ) ;
#181 =( NAMED_UNIT ( * ) PLANE_ANGLE_UNIT ( ) SI_UNIT ( $, .RADIAN. ) );
#182 = FACE_OUTER_BOUND ( 'NONE', #8, .T. ) ;
#183 = CARTESIAN_POINT ( 'NONE',  ( 4.189777606611760026E-14, 6.499999999999998224, 12.00000000000000000 ) ) ;
#184 = ADVANCED_FACE ( 'NONE', ( #101, #24 ), #96, .T. ) ;
#185 = ORIENTED_EDGE ( 'NONE', *, *, #97, .F. ) ;
#186 = FACE_OUTER_BOUND ( 'NONE', #200, .T. ) ;
#187 = CC_DESIGN_APPROVAL ( #192, ( #79 ) ) ;
#188 = EDGE_LOOP ( 'NONE', ( #178 ) ) ;
#189 = COORDINATED_UNIVERSAL_TIME_OFFSET ( 1, 0, .AHEAD. ) ;
#190 = CALENDAR_DATE ( 2024, 12, 7 ) ;
#191 = VERTEX_POINT ( 'NONE', #145 ) ;
#192 = APPROVAL ( #103, 'UNSPECIFIED' ) ;
#193 = CIRCLE ( 'NONE', #159, 6.500000000000000000 ) ;
#194 = CONICAL_SURFACE ( 'NONE', #71, 6.500000000000000888, 0.7853981633974473908 ) ;
#195 = PERSON_AND_ORGANIZATION_ROLE ( 'design_supplier' ) ;
#196 = PERSON_AND_ORGANIZATION_ROLE ( 'creator' ) ;
#197 = DIRECTION ( 'NONE',  ( -3.491481338843133355E-15, 1.224646799147353207E-16, -1.000000000000000000 ) ) ;
#198 = ADVANCED_FACE ( 'NONE', ( #3, #224 ), #64, .T. ) ;
#199 = PERSON_AND_ORGANIZATION ( #123, #110 ) ;
#200 = EDGE_LOOP ( 'NONE', ( #220 ) ) ;
#201 = CC_DESIGN_APPROVAL ( #176, ( #73 ) ) ;
#202 = COORDINATED_UNIVERSAL_TIME_OFFSET ( 1, 0, .AHEAD. ) ;
#203 = DIRECTION ( 'NONE',  ( -3.491481338843133355E-15, 1.224646799147353207E-16, -1.000000000000000000 ) ) ;
#204 = APPROVAL_PERSON_ORGANIZATION ( #199, #105, #155 ) ;
#205 = DIRECTION ( 'NONE',  ( 3.491481338843133355E-15, -1.224646799147353207E-16, 1.000000000000000000 ) ) ;
#206 = DIRECTION ( 'NONE',  ( 4.275831445896959482E-31, 1.000000000000000000, 1.224646799147353207E-16 ) ) ;
#207 = APPLICATION_CONTEXT ( 'configuration controlled 3d designs of mechanical parts and assemblies' ) ;
#208 = AXIS2_PLACEMENT_3D ( 'NONE', #89, #85, #246 ) ;
#209 = EDGE_CURVE ( 'NONE', #170, #170, #218, .T. ) ;
#210 = APPROVAL_DATE_TIME ( #225, #176 ) ;
#211 = VERTEX_POINT ( 'NONE', #183 ) ;
#212 = DIRECTION ( 'NONE',  ( -3.491481338843133355E-15, 1.224646799147353207E-16, -1.000000000000000000 ) ) ;
#213 = PLANE ( 'NONE',  #168 ) ;
#214 = PERSON_AND_ORGANIZATION_ROLE ( 'classification_officer' ) ;
#215 = DIRECTION ( 'NONE',  ( -3.491481338843133355E-15, 1.224646799147353207E-16, -1.000000000000000000 ) ) ;
#216 = MANIFOLD_SOLID_BREP ( 'Corps-Déplacer/Copier1[2]', #81 ) ;
#217 = PLANE ( 'NONE',  #153 ) ;
#218 = CIRCLE ( 'NONE', #126, 7.000000000000000000 ) ;
#219 = DESIGN_CONTEXT ( 'detailed design', #244, 'design' ) ;
#220 = ORIENTED_EDGE ( 'NONE', *, *, #209, .F. ) ;
#221 = EDGE_LOOP ( 'NONE', ( #27 ) ) ;
#222 = CC_DESIGN_APPROVAL ( #105, ( #51 ) ) ;
#223 = CARTESIAN_POINT ( 'NONE',  ( 0.000000000000000000, 0.000000000000000000, 0.000000000000000000 ) ) ;
#224 = FACE_BOUND ( 'NONE', #88, .T. ) ;
#225 = DATE_AND_TIME ( #190, #23 ) ;
#226 = FACE_OUTER_BOUND ( 'NONE', #157, .T. ) ;
#227 = AXIS2_PLACEMENT_3D ( 'NONE', #249, #138, #72 ) ;
#228 = DIRECTION ( 'NONE',  ( -3.491481338843133355E-15, 1.224646799147353207E-16, -1.000000000000000000 ) ) ;
#229 = DIRECTION ( 'NONE',  ( -3.491481338843133355E-15, 1.224646799147353207E-16, -1.000000000000000000 ) ) ;
#230 = DIRECTION ( 'NONE',  ( -4.275831445896958607E-31, -1.000000000000000000, -1.224646799147353207E-16 ) ) ;
#231 = ADVANCED_FACE ( 'NONE', ( #39, #65 ), #233, .T. ) ;
#232 = APPROVAL_ROLE ( '' ) ;
#233 = TOROIDAL_SURFACE ( 'NONE', #59, 6.500000000000000888, 0.4999999999999993339 ) ;
#234 = PLANE ( 'NONE',  #12 ) ;
#235 = VERTEX_POINT ( 'NONE', #124 ) ;
#236 = CARTESIAN_POINT ( 'NONE',  ( 1.745740669421564114E-15, 0.000000000000000000, 0.4999999999999992784 ) ) ;
#237 = CARTESIAN_POINT ( 'NONE',  ( 6.218397878109570941E-32, 6.500000000000000888, 1.781019938136048794E-17 ) ) ;
#238 = AXIS2_PLACEMENT_3D ( 'NONE', #1, #205, #230 ) ;
#239 = FACE_OUTER_BOUND ( 'NONE', #152, .T. ) ;
#240 = COORDINATED_UNIVERSAL_TIME_OFFSET ( 1, 0, .AHEAD. ) ;
#241 = CC_DESIGN_DATE_AND_TIME_ASSIGNMENT ( #147, #257, ( #51 ) ) ;
#242 = ORIENTED_EDGE ( 'NONE', *, *, #34, .F. ) ;
#243 = CIRCLE ( 'NONE', #154, 6.500000000000000000 ) ;
#244 = APPLICATION_CONTEXT ( 'configuration controlled 3d designs of mechanical parts and assemblies' ) ;
#245 = UNCERTAINTY_MEASURE_WITH_UNIT (LENGTH_MEASURE( 1.000000000000000082E-05 ), #161, 'distance_accuracy_value', 'NONE');
#246 = DIRECTION ( 'NONE',  ( 0.000000000000000000, 1.000000000000000000, 0.000000000000000000 ) ) ;
#247 = DIRECTION ( 'NONE',  ( 1.000000000000000000, 0.000000000000000000, 0.000000000000000000 ) ) ;
#248 = DIRECTION ( 'NONE',  ( 0.000000000000000000, -1.000000000000000000, 0.000000000000000000 ) ) ;
#249 = CARTESIAN_POINT ( 'NONE',  ( 2.880472104545584703E-13, -1.010333609296566392E-14, 82.50000000000000000 ) ) ;
#250 = CARTESIAN_POINT ( 'NONE',  ( 2.880472104545584703E-13, 6.999999999999989342, 82.50000000000000000 ) ) ;
#251 = CARTESIAN_POINT ( 'NONE',  ( 4.189777606611760026E-14, -1.469576158976823947E-15, 12.00000000000000000 ) ) ;
#252 = ORIENTED_EDGE ( 'NONE', *, *, #143, .F. ) ;
#253 = DATE_AND_TIME ( #166, #149 ) ;
#254 = VERTEX_POINT ( 'NONE', #13 ) ;
#255 = PERSON_AND_ORGANIZATION ( #123, #110 ) ;
#256 = CALENDAR_DATE ( 2024, 12, 7 ) ;
#257 = DATE_TIME_ROLE ( 'classification_date' ) ;
#258 = AXIS2_PLACEMENT_3D ( 'NONE', #109, #215, #151 ) ;
#259 = CC_DESIGN_SECURITY_CLASSIFICATION ( #51, ( #79 ) ) ;
#260 = SECURITY_CLASSIFICATION_LEVEL ( 'unclassified' ) ;
#261 = DIRECTION ( 'NONE',  ( 4.275831445896958607E-31, 1.000000000000000000, 1.224646799147353207E-16 ) ) ;
#262 = CC_DESIGN_PERSON_AND_ORGANIZATION_ASSIGNMENT ( #139, #83, ( #73 ) ) ;
#263 = AXIS2_PLACEMENT_3D ( 'NONE', #223, #203, #206 ) ;
ENDSEC;
END-ISO-10303-21;
