ISO-10303-21;
HEADER;
FILE_DESCRIPTION (( 'STEP AP203' ),
    '1' );
FILE_NAME ('339004.step',
    '2024-07-12T12:42:34',
    ( '' ),
    ( '' ),
    'SwSTEP 2.0',
    'SolidWorks 2022',
    '' );
FILE_SCHEMA (( 'CONFIG_CONTROL_DESIGN' ));
ENDSEC;

DATA;
#1 = ADVANCED_FACE ( 'NONE', ( #28 ), #192, .F. ) ;
#2 = ORIENTED_EDGE ( 'NONE', *, *, #220, .F. ) ;
#3 = ORIENTED_EDGE ( 'NONE', *, *, #40, .F. ) ;
#4 = EDGE_LOOP ( 'NONE', ( #136 ) ) ;
#5 = ORIENTED_EDGE ( 'NONE', *, *, #190, .T. ) ;
#6 = CIRCLE ( 'NONE', #38, 5.499999999999999112 ) ;
#7 = EDGE_LOOP ( 'NONE', ( #172 ) ) ;
#8 = DIRECTION ( 'NONE',  ( 4.270271130389991306E-31, 1.000000000000000000, 1.224646799147353207E-16 ) ) ;
#9 = PLANE ( 'NONE',  #122 ) ;
#10 = DATE_AND_TIME ( #152, #235 ) ;
#11 = ADVANCED_FACE ( 'NONE', ( #225, #24 ), #94, .T. ) ;
#12 = CARTESIAN_POINT ( 'NONE',  ( 3.491481338843133355E-14, 5.499999999999998224, 10.00000000000000000 ) ) ;
#13 = CONICAL_SURFACE ( 'NONE', #45, 5.500000000000000000, 0.7853981633974439491 ) ;
#14 = DIRECTION ( 'NONE',  ( -3.491481338843133355E-15, 1.224646799147353207E-16, -1.000000000000000000 ) ) ;
#15 = PRODUCT_RELATED_PRODUCT_CATEGORY ( 'detail', '', ( #108 ) ) ;
#16 = PLANE ( 'NONE',  #240 ) ;
#17 = PERSON_AND_ORGANIZATION ( #229, #91 ) ;
#18 = ADVANCED_FACE ( 'NONE', ( #195 ), #245, .F. ) ;
#19 = CIRCLE ( 'NONE', #208, 5.899999999999999467 ) ;
#20 = APPROVAL_PERSON_ORGANIZATION ( #121, #57, #179 ) ;
#21 = DIRECTION ( 'NONE',  ( -3.491481338843133355E-15, 1.224646799147353207E-16, -1.000000000000000000 ) ) ;
#22 = DIRECTION ( 'NONE',  ( -3.491481338843133355E-15, 1.224646799147353207E-16, -1.000000000000000000 ) ) ;
#23 = UNCERTAINTY_MEASURE_WITH_UNIT (LENGTH_MEASURE( 1.000000000000000082E-05 ), #85, 'distance_accuracy_value', 'NONE');
#24 = FACE_OUTER_BOUND ( 'NONE', #118, .T. ) ;
#25 = ADVANCED_FACE ( 'NONE', ( #46, #74 ), #129, .T. ) ;
#26 = DIRECTION ( 'NONE',  ( -3.491481338843133355E-15, 1.224646799147353207E-16, -1.000000000000000000 ) ) ;
#27 = APPROVAL_DATE_TIME ( #47, #84 ) ;
#28 = FACE_OUTER_BOUND ( 'NONE', #4, .T. ) ;
#29 = DIRECTION ( 'NONE',  ( -3.491481338843133355E-15, 1.224646799147353207E-16, -1.000000000000000000 ) ) ;
#30 = PERSON_AND_ORGANIZATION_ROLE ( 'classification_officer' ) ;
#31 = FACE_OUTER_BOUND ( 'NONE', #50, .T. ) ;
#32 = AXIS2_PLACEMENT_3D ( 'NONE', #173, #251, #123 ) ;
#33 = COORDINATED_UNIVERSAL_TIME_OFFSET ( 1, 0, .AHEAD. ) ;
#34 = EDGE_LOOP ( 'NONE', ( #162 ) ) ;
#35 = DIRECTION ( 'NONE',  ( 0.000000000000000000, 1.000000000000000000, 0.000000000000000000 ) ) ;
#36 = FACE_OUTER_BOUND ( 'NONE', #142, .T. ) ;
#37 = CARTESIAN_POINT ( 'NONE',  ( 3.491481338843133848E-16, 6.000000000000000000, 0.1000000000000000194 ) ) ;
#38 = AXIS2_PLACEMENT_3D ( 'NONE', #221, #144, #59 ) ;
#39 =( GEOMETRIC_REPRESENTATION_CONTEXT ( 3 ) GLOBAL_UNCERTAINTY_ASSIGNED_CONTEXT ( ( #23 ) ) GLOBAL_UNIT_ASSIGNED_CONTEXT ( ( #85, #87, #171 ) ) REPRESENTATION_CONTEXT ( 'NONE', 'WORKASPACE' ) );
#40 = EDGE_CURVE ( 'NONE', #197, #197, #19, .T. ) ;
#41 = VERTEX_POINT ( 'NONE', #37 ) ;
#42 = EDGE_LOOP ( 'NONE', ( #2 ) ) ;
#43 = CARTESIAN_POINT ( 'NONE',  ( -2.522740553079205385E-30, 8.848582717704959886E-32, -7.225416114969384193E-16 ) ) ;
#44 = CLOSED_SHELL ( 'NONE', ( #18, #48, #71, #181, #25, #1 ) ) ;
#45 = AXIS2_PLACEMENT_3D ( 'NONE', #164, #259, #177 ) ;
#46 = FACE_OUTER_BOUND ( 'NONE', #42, .T. ) ;
#47 = DATE_AND_TIME ( #109, #194 ) ;
#48 = ADVANCED_FACE ( 'NONE', ( #114, #226 ), #131, .T. ) ;
#49 = DIRECTION ( 'NONE',  ( -3.491481338843133355E-15, 1.224646799147353207E-16, -1.000000000000000000 ) ) ;
#50 = EDGE_LOOP ( 'NONE', ( #68 ) ) ;
#51 = APPROVAL_STATUS ( 'not_yet_approved' ) ;
#52 = CARTESIAN_POINT ( 'NONE',  ( -1.261370276539602693E-30, 4.424291358852479943E-32, -3.612708057484692097E-16 ) ) ;
#53 = CARTESIAN_POINT ( 'NONE',  ( 6.982962677686266711E-14, 5.499999999999997335, 20.00000000000000000 ) ) ;
#54 = DIRECTION ( 'NONE',  ( 1.000000000000000000, 0.000000000000000000, 0.000000000000000000 ) ) ;
#55 = DIRECTION ( 'NONE',  ( -4.275831445896958607E-31, -1.000000000000000000, -1.224646799147353207E-16 ) ) ;
#56 = APPROVAL_STATUS ( 'not_yet_approved' ) ;
#57 = APPROVAL ( #56, 'UNSPECIFIED' ) ;
#58 = AXIS2_PLACEMENT_3D ( 'NONE', #133, #49, #135 ) ;
#59 = DIRECTION ( 'NONE',  ( 0.000000000000000000, 1.000000000000000000, 0.000000000000000000 ) ) ;
#60 = CARTESIAN_POINT ( 'NONE',  ( 6.982962677686266711E-14, -2.449293598294706513E-15, 20.00000000000000000 ) ) ;
#61 = COORDINATED_UNIVERSAL_TIME_OFFSET ( 1, 0, .AHEAD. ) ;
#62 = ADVANCED_FACE ( 'NONE', ( #163 ), #16, .T. ) ;
#63 = VERTEX_POINT ( 'NONE', #183 ) ;
#64 = PRODUCT_DEFINITION_SHAPE ( 'NONE', 'NONE',  #252 ) ;
#65 = CARTESIAN_POINT ( 'NONE',  ( 2.880472104545584703E-13, 5.999999999999991118, 82.50000000000000000 ) ) ;
#66 = APPLICATION_CONTEXT ( 'configuration controlled 3d designs of mechanical parts and assemblies' ) ;
#67 = PRODUCT_DEFINITION_FORMATION_WITH_SPECIFIED_SOURCE ( 'ANY', '', #108, .NOT_KNOWN. ) ;
#68 = ORIENTED_EDGE ( 'NONE', *, *, #220, .T. ) ;
#69 = CC_DESIGN_DATE_AND_TIME_ASSIGNMENT ( #238, #165, ( #180 ) ) ;
#70 = COORDINATED_UNIVERSAL_TIME_OFFSET ( 1, 0, .AHEAD. ) ;
#71 = ADVANCED_FACE ( 'NONE', ( #239, #82 ), #13, .T. ) ;
#72 = DIRECTION ( 'NONE',  ( 4.275831445896958607E-31, 1.000000000000000000, 1.224646799147353454E-16 ) ) ;
#73 = AXIS2_PLACEMENT_3D ( 'NONE', #257, #29, #35 ) ;
#74 = FACE_BOUND ( 'NONE', #211, .T. ) ;
#75 = EDGE_LOOP ( 'NONE', ( #213 ) ) ;
#76 = DIRECTION ( 'NONE',  ( -3.491481338843133355E-15, 1.224646799147353207E-16, -1.000000000000000000 ) ) ;
#77 = AXIS2_PLACEMENT_3D ( 'NONE', #202, #14, #103 ) ;
#78 = AXIS2_PLACEMENT_3D ( 'NONE', #247, #153, #54 ) ;
#79 = FACE_OUTER_BOUND ( 'NONE', #111, .T. ) ;
#80 = CC_DESIGN_PERSON_AND_ORGANIZATION_ASSIGNMENT ( #128, #30, ( #180 ) ) ;
#81 = EDGE_CURVE ( 'NONE', #99, #99, #186, .T. ) ;
#82 = FACE_BOUND ( 'NONE', #244, .T. ) ;
#83 = APPROVAL_PERSON_ORGANIZATION ( #159, #212, #246 ) ;
#84 = APPROVAL ( #51, 'UNSPECIFIED' ) ;
#85 =( LENGTH_UNIT ( ) NAMED_UNIT ( * ) SI_UNIT ( .MILLI., .METRE. ) );
#86 = PERSON_AND_ORGANIZATION_ROLE ( 'design_owner' ) ;
#87 =( NAMED_UNIT ( * ) PLANE_ANGLE_UNIT ( ) SI_UNIT ( $, .RADIAN. ) );
#88 = AXIS2_PLACEMENT_3D ( 'NONE', #60, #178, #145 ) ;
#89 = CC_DESIGN_APPROVAL ( #84, ( #252 ) ) ;
#90 = CIRCLE ( 'NONE', #233, 6.000000000000001776 ) ;
#91 = ORGANIZATION ( 'UNSPECIFIED', 'UNSPECIFIED', '' ) ;
#92 = EDGE_CURVE ( 'NONE', #215, #215, #156, .T. ) ;
#93 = APPLICATION_PROTOCOL_DEFINITION ( 'international standard', 'config_control_design', 1994, #66 ) ;
#94 = CYLINDRICAL_SURFACE ( 'NONE', #154, 6.000000000000000000 ) ;
#95 = ORIENTED_EDGE ( 'NONE', *, *, #81, .T. ) ;
#96 = DIRECTION ( 'NONE',  ( 3.491481338843133355E-15, -1.224646799147353207E-16, 1.000000000000000000 ) ) ;
#97 = DIRECTION ( 'NONE',  ( 4.275831445896958607E-31, 1.000000000000000000, 1.224646799147353207E-16 ) ) ;
#98 = APPROVAL_ROLE ( '' ) ;
#99 = VERTEX_POINT ( 'NONE', #204 ) ;
#100 = CC_DESIGN_SECURITY_CLASSIFICATION ( #180, ( #67 ) ) ;
#101 = CARTESIAN_POINT ( 'NONE',  ( 2.880472104545584703E-13, -1.010333609296566392E-14, 82.50000000000000000 ) ) ;
#102 = EDGE_CURVE ( 'NONE', #216, #216, #6, .T. ) ;
#103 = DIRECTION ( 'NONE',  ( 0.000000000000000000, 1.000000000000000000, 0.000000000000000000 ) ) ;
#104 = PERSON_AND_ORGANIZATION ( #229, #91 ) ;
#105 = PERSON_AND_ORGANIZATION_ROLE ( 'design_supplier' ) ;
#106 = APPROVAL_PERSON_ORGANIZATION ( #155, #84, #98 ) ;
#107 = VERTEX_POINT ( 'NONE', #185 ) ;
#108 = PRODUCT ( '339004', '339004', '', ( #182 ) ) ;
#109 = CALENDAR_DATE ( 2024, 12, 7 ) ;
#110 = ADVANCED_FACE ( 'NONE', ( #79, #36 ), #214, .T. ) ;
#111 = EDGE_LOOP ( 'NONE', ( #170 ) ) ;
#112 = DIRECTION ( 'NONE',  ( 4.275831445896959482E-31, 1.000000000000000000, 1.224646799147353207E-16 ) ) ;
#113 = CC_DESIGN_PERSON_AND_ORGANIZATION_ASSIGNMENT ( #132, #234, ( #252 ) ) ;
#114 = FACE_OUTER_BOUND ( 'NONE', #7, .T. ) ;
#115 = CALENDAR_DATE ( 2024, 12, 7 ) ;
#116 = CIRCLE ( 'NONE', #77, 5.500000000000001776 ) ;
#117 = LOCAL_TIME ( 14, 42, 34.00000000000000000, #33 ) ;
#118 = EDGE_LOOP ( 'NONE', ( #228 ) ) ;
#119 = DIRECTION ( 'NONE',  ( 4.253095293855146134E-31, 1.000000000000000000, 1.219727444046192488E-16 ) ) ;
#120 = DIRECTION ( 'NONE',  ( -3.491481338843133355E-15, 1.224646799147353207E-16, -1.000000000000000000 ) ) ;
#121 = PERSON_AND_ORGANIZATION ( #229, #91 ) ;
#122 = AXIS2_PLACEMENT_3D ( 'NONE', #52, #217, #97 ) ;
#123 = DIRECTION ( 'NONE',  ( 4.275831445896958607E-31, 1.000000000000000000, 1.224646799147353454E-16 ) ) ;
#124 = CALENDAR_DATE ( 2024, 12, 7 ) ;
#125 = FACE_OUTER_BOUND ( 'NONE', #130, .T. ) ;
#126 = APPROVAL_DATE_TIME ( #10, #212 ) ;
#127 = CARTESIAN_POINT ( 'NONE',  ( 3.491481338843108210E-16, 0.000000000000000000, 0.09999999999999928391 ) ) ;
#128 = PERSON_AND_ORGANIZATION ( #229, #91 ) ;
#129 = CONICAL_SURFACE ( 'NONE', #263, 5.500000000000001776, 0.7853981633974482790 ) ;
#130 = EDGE_LOOP ( 'NONE', ( #167 ) ) ;
#131 = CYLINDRICAL_SURFACE ( 'NONE', #143, 5.500000000000000000 ) ;
#132 = PERSON_AND_ORGANIZATION ( #229, #91 ) ;
#133 = CARTESIAN_POINT ( 'NONE',  ( 2.897929511239800811E-13, 4.124339402320094190E-32, 83.00000000000000000 ) ) ;
#134 = CC_DESIGN_DATE_AND_TIME_ASSIGNMENT ( #193, #174, ( #252 ) ) ;
#135 = DIRECTION ( 'NONE',  ( 4.275831445896958607E-31, 1.000000000000000000, 1.224646799147353207E-16 ) ) ;
#136 = ORIENTED_EDGE ( 'NONE', *, *, #190, .F. ) ;
#137 = DIRECTION ( 'NONE',  ( -3.491481338843133355E-15, 1.224646799147353207E-16, -1.000000000000000000 ) ) ;
#138 = DIRECTION ( 'NONE',  ( 0.000000000000000000, 1.000000000000000000, 0.000000000000000000 ) ) ;
#139 = ADVANCED_FACE ( 'NONE', ( #160 ), #9, .T. ) ;
#140 = DIRECTION ( 'NONE',  ( 4.275831445896957731E-31, 1.000000000000000000, 1.224646799147353207E-16 ) ) ;
#141 = SHAPE_DEFINITION_REPRESENTATION ( #64, #176 ) ;
#142 = EDGE_LOOP ( 'NONE', ( #3 ) ) ;
#143 = AXIS2_PLACEMENT_3D ( 'NONE', #209, #22, #140 ) ;
#144 = DIRECTION ( 'NONE',  ( -3.491481338843133355E-15, 1.224646799147353207E-16, -1.000000000000000000 ) ) ;
#145 = DIRECTION ( 'NONE',  ( 0.000000000000000000, 1.000000000000000000, 0.000000000000000000 ) ) ;
#146 = MANIFOLD_SOLID_BREP ( 'Corps-Déplacer/Copier1[2]', #199 ) ;
#147 = CIRCLE ( 'NONE', #73, 6.000000000000000000 ) ;
#148 = LOCAL_TIME ( 14, 42, 34.00000000000000000, #188 ) ;
#149 = CC_DESIGN_PERSON_AND_ORGANIZATION_ASSIGNMENT ( #17, #105, ( #67 ) ) ;
#150 = ORIENTED_EDGE ( 'NONE', *, *, #205, .T. ) ;
#151 = DIRECTION ( 'NONE',  ( -3.491481338843133355E-15, 1.224646799147353207E-16, -1.000000000000000000 ) ) ;
#152 = CALENDAR_DATE ( 2024, 12, 7 ) ;
#153 = DIRECTION ( 'NONE',  ( 0.000000000000000000, 0.000000000000000000, 1.000000000000000000 ) ) ;
#154 = AXIS2_PLACEMENT_3D ( 'NONE', #207, #21, #112 ) ;
#155 = PERSON_AND_ORGANIZATION ( #229, #91 ) ;
#156 = CIRCLE ( 'NONE', #88, 5.500000000000000000 ) ;
#157 = EDGE_LOOP ( 'NONE', ( #95 ) ) ;
#158 = DIRECTION ( 'NONE',  ( 0.000000000000000000, 1.000000000000000000, 0.000000000000000000 ) ) ;
#159 = PERSON_AND_ORGANIZATION ( #229, #91 ) ;
#160 = FACE_OUTER_BOUND ( 'NONE', #231, .T. ) ;
#161 = SECURITY_CLASSIFICATION_LEVEL ( 'unclassified' ) ;
#162 = ORIENTED_EDGE ( 'NONE', *, *, #102, .T. ) ;
#163 = FACE_OUTER_BOUND ( 'NONE', #75, .T. ) ;
#164 = CARTESIAN_POINT ( 'NONE',  ( 6.982962677686266711E-14, -2.449293598294706513E-15, 20.00000000000000000 ) ) ;
#165 = DATE_TIME_ROLE ( 'classification_date' ) ;
#166 = CC_DESIGN_PERSON_AND_ORGANIZATION_ASSIGNMENT ( #243, #86, ( #108 ) ) ;
#167 = ORIENTED_EDGE ( 'NONE', *, *, #81, .F. ) ;
#168 = ORIENTED_EDGE ( 'NONE', *, *, #92, .F. ) ;
#169 = APPROVAL_STATUS ( 'not_yet_approved' ) ;
#170 = ORIENTED_EDGE ( 'NONE', *, *, #254, .T. ) ;
#171 =( NAMED_UNIT ( * ) SI_UNIT ( $, .STERADIAN. ) SOLID_ANGLE_UNIT ( ) );
#172 = ORIENTED_EDGE ( 'NONE', *, *, #92, .T. ) ;
#173 = CARTESIAN_POINT ( 'NONE',  ( 0.000000000000000000, 0.000000000000000000, 0.000000000000000000 ) ) ;
#174 = DATE_TIME_ROLE ( 'creation_date' ) ;
#175 = CARTESIAN_POINT ( 'NONE',  ( 3.491481338843133355E-14, 4.499279347985571729E-32, 10.00000000000000000 ) ) ;
#176 = ADVANCED_BREP_SHAPE_REPRESENTATION ( '339004', ( #223, #146, #78 ), #39 ) ;
#177 = DIRECTION ( 'NONE',  ( 0.000000000000000000, -1.000000000000000000, 0.000000000000000000 ) ) ;
#178 = DIRECTION ( 'NONE',  ( -3.491481338843133355E-15, 1.224646799147353207E-16, -1.000000000000000000 ) ) ;
#179 = APPROVAL_ROLE ( '' ) ;
#180 = SECURITY_CLASSIFICATION ( '', '', #161 ) ;
#181 = ADVANCED_FACE ( 'NONE', ( #125, #31 ), #255, .T. ) ;
#182 = MECHANICAL_CONTEXT ( 'NONE', #66, 'mechanical' ) ;
#183 = CARTESIAN_POINT ( 'NONE',  ( 3.491481338843133355E-14, 5.999999999999999112, 10.00000000000000000 ) ) ;
#184 = CC_DESIGN_APPROVAL ( #212, ( #67 ) ) ;
#185 = CARTESIAN_POINT ( 'NONE',  ( 2.897929511239800811E-13, 5.499999999999991118, 83.00000000000000000 ) ) ;
#186 = CIRCLE ( 'NONE', #200, 5.999999999999992006 ) ;
#187 = EDGE_LOOP ( 'NONE', ( #249 ) ) ;
#188 = COORDINATED_UNIVERSAL_TIME_OFFSET ( 1, 0, .AHEAD. ) ;
#189 = CARTESIAN_POINT ( 'NONE',  ( 2.897929511239800811E-13, -1.016456843292303150E-14, 83.00000000000000000 ) ) ;
#190 = EDGE_CURVE ( 'NONE', #107, #107, #116, .T. ) ;
#191 = DIRECTION ( 'NONE',  ( -4.275831445896958607E-31, -1.000000000000000000, -1.224646799147353207E-16 ) ) ;
#192 = PLANE ( 'NONE',  #58 ) ;
#193 = DATE_AND_TIME ( #115, #148 ) ;
#194 = LOCAL_TIME ( 14, 42, 34.00000000000000000, #196 ) ;
#195 = FACE_OUTER_BOUND ( 'NONE', #34, .T. ) ;
#196 = COORDINATED_UNIVERSAL_TIME_OFFSET ( 1, 0, .AHEAD. ) ;
#197 = VERTEX_POINT ( 'NONE', #236 ) ;
#198 = DIRECTION ( 'NONE',  ( -3.491481338843133355E-15, 1.224646799147353207E-16, -1.000000000000000000 ) ) ;
#199 = CLOSED_SHELL ( 'NONE', ( #139, #110, #11, #62 ) ) ;
#200 = AXIS2_PLACEMENT_3D ( 'NONE', #241, #198, #138 ) ;
#201 = CC_DESIGN_PERSON_AND_ORGANIZATION_ASSIGNMENT ( #104, #256, ( #67 ) ) ;
#202 = CARTESIAN_POINT ( 'NONE',  ( 2.897929511239800811E-13, -1.016456843292303150E-14, 83.00000000000000000 ) ) ;
#203 = DATE_AND_TIME ( #124, #117 ) ;
#204 = CARTESIAN_POINT ( 'NONE',  ( 7.157536744628422747E-14, 5.999999999999989342, 20.49999999999999645 ) ) ;
#205 = EDGE_CURVE ( 'NONE', #63, #63, #147, .T. ) ;
#206 = LOCAL_TIME ( 14, 42, 34.00000000000000000, #61 ) ;
#207 = CARTESIAN_POINT ( 'NONE',  ( 0.000000000000000000, 0.000000000000000000, 0.000000000000000000 ) ) ;
#208 = AXIS2_PLACEMENT_3D ( 'NONE', #43, #151, #72 ) ;
#209 = CARTESIAN_POINT ( 'NONE',  ( 0.000000000000000000, 0.000000000000000000, 0.000000000000000000 ) ) ;
#210 = ORIENTED_EDGE ( 'NONE', *, *, #40, .T. ) ;
#211 = EDGE_LOOP ( 'NONE', ( #5 ) ) ;
#212 = APPROVAL ( #169, 'UNSPECIFIED' ) ;
#213 = ORIENTED_EDGE ( 'NONE', *, *, #205, .F. ) ;
#214 = TOROIDAL_SURFACE ( 'NONE', #224, 5.899999999999999467, 0.1000000000000001305 ) ;
#215 = VERTEX_POINT ( 'NONE', #53 ) ;
#216 = VERTEX_POINT ( 'NONE', #12 ) ;
#217 = DIRECTION ( 'NONE',  ( -3.491481338843133355E-15, 1.224646799147353207E-16, -1.000000000000000000 ) ) ;
#218 = APPROVAL_DATE_TIME ( #203, #57 ) ;
#219 = CIRCLE ( 'NONE', #253, 6.000000000000000000 ) ;
#220 = EDGE_CURVE ( 'NONE', #222, #222, #90, .T. ) ;
#221 = CARTESIAN_POINT ( 'NONE',  ( 3.491481338843133355E-14, -1.224646799147353256E-15, 10.00000000000000000 ) ) ;
#222 = VERTEX_POINT ( 'NONE', #65 ) ;
#223 = MANIFOLD_SOLID_BREP ( 'Corps-Déplacer/Copier1[1]', #44 ) ;
#224 = AXIS2_PLACEMENT_3D ( 'NONE', #127, #120, #8 ) ;
#225 = FACE_OUTER_BOUND ( 'NONE', #250, .T. ) ;
#226 = FACE_OUTER_BOUND ( 'NONE', #187, .T. ) ;
#227 = DIRECTION ( 'NONE',  ( 0.000000000000000000, 1.000000000000000000, 0.000000000000000000 ) ) ;
#228 = ORIENTED_EDGE ( 'NONE', *, *, #254, .F. ) ;
#229 = PERSON ( 'UNSPECIFIED', 'UNSPECIFIED', 'UNSPECIFIED', ('UNSPECIFIED'), ('UNSPECIFIED'), ('UNSPECIFIED') ) ;
#230 = APPLICATION_PROTOCOL_DEFINITION ( 'international standard', 'config_control_design', 1994, #260 ) ;
#231 = EDGE_LOOP ( 'NONE', ( #210 ) ) ;
#232 = CARTESIAN_POINT ( 'NONE',  ( 3.491481338843108210E-16, -1.224646799147344487E-17, 0.09999999999999928391 ) ) ;
#233 = AXIS2_PLACEMENT_3D ( 'NONE', #101, #76, #158 ) ;
#234 = PERSON_AND_ORGANIZATION_ROLE ( 'creator' ) ;
#235 = LOCAL_TIME ( 14, 42, 34.00000000000000000, #70 ) ;
#236 = CARTESIAN_POINT ( 'NONE',  ( 0.000000000000000000, 5.899999999999999467, 0.000000000000000000 ) ) ;
#237 = DIRECTION ( 'NONE',  ( 3.491481338843133355E-15, -1.224646799147353207E-16, 1.000000000000000000 ) ) ;
#238 = DATE_AND_TIME ( #258, #206 ) ;
#239 = FACE_OUTER_BOUND ( 'NONE', #157, .T. ) ;
#240 = AXIS2_PLACEMENT_3D ( 'NONE', #175, #237, #55 ) ;
#241 = CARTESIAN_POINT ( 'NONE',  ( 7.157536744628422747E-14, -2.510525938252074087E-15, 20.49999999999999645 ) ) ;
#242 = DESIGN_CONTEXT ( 'detailed design', #260, 'design' ) ;
#243 = PERSON_AND_ORGANIZATION ( #229, #91 ) ;
#244 = EDGE_LOOP ( 'NONE', ( #168 ) ) ;
#245 = PLANE ( 'NONE',  #262 ) ;
#246 = APPROVAL_ROLE ( '' ) ;
#247 = CARTESIAN_POINT ( 'NONE',  ( 0.000000000000000000, 0.000000000000000000, 0.000000000000000000 ) ) ;
#248 = CARTESIAN_POINT ( 'NONE',  ( 3.491481338843133355E-14, 4.124339402320106232E-32, 10.00000000000000000 ) ) ;
#249 = ORIENTED_EDGE ( 'NONE', *, *, #102, .F. ) ;
#250 = EDGE_LOOP ( 'NONE', ( #150 ) ) ;
#251 = DIRECTION ( 'NONE',  ( -3.491481338843133355E-15, 1.224646799147353207E-16, -1.000000000000000000 ) ) ;
#252 = PRODUCT_DEFINITION ( 'UNKNOWN', '', #67, #242 ) ;
#253 = AXIS2_PLACEMENT_3D ( 'NONE', #232, #137, #119 ) ;
#254 = EDGE_CURVE ( 'NONE', #41, #41, #219, .T. ) ;
#255 = CYLINDRICAL_SURFACE ( 'NONE', #32, 5.999999999999996447 ) ;
#256 = PERSON_AND_ORGANIZATION_ROLE ( 'creator' ) ;
#257 = CARTESIAN_POINT ( 'NONE',  ( 3.491481338843133355E-14, -1.224646799147353256E-15, 10.00000000000000000 ) ) ;
#258 = CALENDAR_DATE ( 2024, 12, 7 ) ;
#259 = DIRECTION ( 'NONE',  ( 3.491481338843133355E-15, -1.224646799147353207E-16, 1.000000000000000000 ) ) ;
#260 = APPLICATION_CONTEXT ( 'configuration controlled 3d designs of mechanical parts and assemblies' ) ;
#261 = CC_DESIGN_APPROVAL ( #57, ( #180 ) ) ;
#262 = AXIS2_PLACEMENT_3D ( 'NONE', #248, #96, #191 ) ;
#263 = AXIS2_PLACEMENT_3D ( 'NONE', #189, #26, #227 ) ;
ENDSEC;
END-ISO-10303-21;
