ISO-10303-21;
HEADER;
FILE_DESCRIPTION (( 'STEP AP203' ),
    '1' );
FILE_NAME ('339001.step',
    '2024-07-12T12:42:34',
    ( '' ),
    ( '' ),
    'SwSTEP 2.0',
    'SolidWorks 2022',
    '' );
FILE_SCHEMA (( 'CONFIG_CONTROL_DESIGN' ));
ENDSEC;

DATA;
#1 = PRODUCT_DEFINITION_SHAPE ( 'NONE', 'NONE',  #205 ) ;
#2 = PERSON_AND_ORGANIZATION_ROLE ( 'creator' ) ;
#3 = ADVANCED_FACE ( 'NONE', ( #93, #116 ), #240, .T. ) ;
#4 = DATE_TIME_ROLE ( 'classification_date' ) ;
#5 = AXIS2_PLACEMENT_3D ( 'NONE', #76, #114, #50 ) ;
#6 = PERSON_AND_ORGANIZATION ( #248, #113 ) ;
#7 = ORIENTED_EDGE ( 'NONE', *, *, #257, .F. ) ;
#8 = ADVANCED_FACE ( 'NONE', ( #154, #190 ), #207, .T. ) ;
#9 = ORIENTED_EDGE ( 'NONE', *, *, #206, .T. ) ;
#10 = EDGE_LOOP ( 'NONE', ( #163 ) ) ;
#11 = CARTESIAN_POINT ( 'NONE',  ( 0.000000000000000000, 0.000000000000000000, 0.000000000000000000 ) ) ;
#12 = APPROVAL_PERSON_ORGANIZATION ( #146, #247, #223 ) ;
#13 = CC_DESIGN_PERSON_AND_ORGANIZATION_ASSIGNMENT ( #244, #24, ( #205 ) ) ;
#14 = CARTESIAN_POINT ( 'NONE',  ( 4.189777606611760026E-14, 3.749399456654641830E-32, 12.00000000000000000 ) ) ;
#15 = CARTESIAN_POINT ( 'NONE',  ( 1.230747171942204602E-13, -4.316879966994420283E-15, 35.25000000000000000 ) ) ;
#16 = FACE_OUTER_BOUND ( 'NONE', #46, .T. ) ;
#17 = PERSON_AND_ORGANIZATION ( #248, #113 ) ;
#18 = AXIS2_PLACEMENT_3D ( 'NONE', #179, #99, #177 ) ;
#19 = PLANE ( 'NONE',  #60 ) ;
#20 = APPLICATION_PROTOCOL_DEFINITION ( 'international standard', 'config_control_design', 1994, #225 ) ;
#21 = DIRECTION ( 'NONE',  ( -3.491481338843133355E-15, 1.224646799147353207E-16, -1.000000000000000000 ) ) ;
#22 =( NAMED_UNIT ( * ) SI_UNIT ( $, .STERADIAN. ) SOLID_ANGLE_UNIT ( ) );
#23 = FACE_OUTER_BOUND ( 'NONE', #45, .T. ) ;
#24 = PERSON_AND_ORGANIZATION_ROLE ( 'creator' ) ;
#25 = CARTESIAN_POINT ( 'NONE',  ( 2.618611004132350143E-13, -9.184850993605148733E-15, 75.00000000000000000 ) ) ;
#26 = PERSON_AND_ORGANIZATION ( #248, #113 ) ;
#27 = EDGE_CURVE ( 'NONE', #89, #89, #172, .T. ) ;
#28 = CARTESIAN_POINT ( 'NONE',  ( 1.222018468595096801E-13, -4.286263797015736496E-15, 35.00000000000000000 ) ) ;
#29 = CARTESIAN_POINT ( 'NONE',  ( 2.601153597438134034E-13, -9.123618653647779582E-15, 74.49999999999998579 ) ) ;
#30 = CC_DESIGN_APPROVAL ( #152, ( #48 ) ) ;
#31 = FACE_OUTER_BOUND ( 'NONE', #232, .T. ) ;
#32 = VERTEX_POINT ( 'NONE', #115 ) ;
#33 = ORIENTED_EDGE ( 'NONE', *, *, #206, .F. ) ;
#34 = ADVANCED_FACE ( 'NONE', ( #31, #238 ), #140, .T. ) ;
#35 = DIRECTION ( 'NONE',  ( 4.275831445896958607E-31, 1.000000000000000000, 1.224646799147353207E-16 ) ) ;
#36 = FACE_OUTER_BOUND ( 'NONE', #167, .T. ) ;
#37 = AXIS2_PLACEMENT_3D ( 'NONE', #70, #236, #148 ) ;
#38 = DATE_AND_TIME ( #141, #100 ) ;
#39 = MANIFOLD_SOLID_BREP ( 'Corps-Déplacer/Copier1[2]', #143 ) ;
#40 = PERSON_AND_ORGANIZATION ( #248, #113 ) ;
#41 = DATE_AND_TIME ( #224, #44 ) ;
#42 = AXIS2_PLACEMENT_3D ( 'NONE', #215, #121, #197 ) ;
#43 = EDGE_LOOP ( 'NONE', ( #7 ) ) ;
#44 = LOCAL_TIME ( 14, 42, 34.00000000000000000, #203 ) ;
#45 = EDGE_LOOP ( 'NONE', ( #182 ) ) ;
#46 = EDGE_LOOP ( 'NONE', ( #9 ) ) ;
#47 = CARTESIAN_POINT ( 'NONE',  ( 3.491481338843112648E-16, -1.224646799147345873E-17, 0.09999999999999940881 ) ) ;
#48 = SECURITY_CLASSIFICATION ( '', '', #160 ) ;
#49 = EDGE_CURVE ( 'NONE', #32, #32, #92, .T. ) ;
#50 = DIRECTION ( 'NONE',  ( 4.275831445896958607E-31, 1.000000000000000000, 1.224646799147353207E-16 ) ) ;
#51 = CARTESIAN_POINT ( 'NONE',  ( 3.491481338843133848E-16, 5.000000000000000000, 0.1000000000000000194 ) ) ;
#52 = DIRECTION ( 'NONE',  ( -3.491481338843133355E-15, 1.224646799147353207E-16, -1.000000000000000000 ) ) ;
#53 = MANIFOLD_SOLID_BREP ( 'Corps-Déplacer/Copier1[1]', #83 ) ;
#54 = DIRECTION ( 'NONE',  ( 0.000000000000000000, 1.000000000000000000, 0.000000000000000000 ) ) ;
#55 = CIRCLE ( 'NONE', #84, 5.000000000000000000 ) ;
#56 = VERTEX_POINT ( 'NONE', #155 ) ;
#57 = CARTESIAN_POINT ( 'NONE',  ( 4.189777606611760026E-14, 3.561929483821908808E-32, 12.00000000000000000 ) ) ;
#58 = CC_DESIGN_DATE_AND_TIME_ASSIGNMENT ( #41, #184, ( #205 ) ) ;
#59 = ORIENTED_EDGE ( 'NONE', *, *, #161, .F. ) ;
#60 = AXIS2_PLACEMENT_3D ( 'NONE', #14, #254, #94 ) ;
#61 = ORIENTED_EDGE ( 'NONE', *, *, #49, .F. ) ;
#62 = PLANE ( 'NONE',  #18 ) ;
#63 = APPROVAL_ROLE ( '' ) ;
#64 = COORDINATED_UNIVERSAL_TIME_OFFSET ( 1, 0, .AHEAD. ) ;
#65 = CALENDAR_DATE ( 2024, 12, 7 ) ;
#66 = AXIS2_PLACEMENT_3D ( 'NONE', #15, #171, #219 ) ;
#67 = ADVANCED_FACE ( 'NONE', ( #255, #196 ), #69, .T. ) ;
#68 = ORIENTED_EDGE ( 'NONE', *, *, #193, .T. ) ;
#69 = CONICAL_SURFACE ( 'NONE', #231, 4.750000000000000000, 0.7853981633974380649 ) ;
#70 = CARTESIAN_POINT ( 'NONE',  ( 2.618611004132350143E-13, -9.184850993605148733E-15, 75.00000000000000000 ) ) ;
#71 = EDGE_LOOP ( 'NONE', ( #186 ) ) ;
#72 = FACE_OUTER_BOUND ( 'NONE', #10, .T. ) ;
#73 = DIRECTION ( 'NONE',  ( -3.491481338843133355E-15, 1.224646799147353207E-16, -1.000000000000000000 ) ) ;
#74 = FACE_OUTER_BOUND ( 'NONE', #165, .T. ) ;
#75 = EDGE_LOOP ( 'NONE', ( #130 ) ) ;
#76 = CARTESIAN_POINT ( 'NONE',  ( 0.000000000000000000, 0.000000000000000000, 0.000000000000000000 ) ) ;
#77 = MECHANICAL_CONTEXT ( 'NONE', #225, 'mechanical' ) ;
#78 = CC_DESIGN_PERSON_AND_ORGANIZATION_ASSIGNMENT ( #26, #107, ( #119 ) ) ;
#79 = DIRECTION ( 'NONE',  ( 0.000000000000000000, 1.000000000000000000, 0.000000000000000000 ) ) ;
#80 = LOCAL_TIME ( 14, 42, 34.00000000000000000, #249 ) ;
#81 = CC_DESIGN_PERSON_AND_ORGANIZATION_ASSIGNMENT ( #87, #82, ( #48 ) ) ;
#82 = PERSON_AND_ORGANIZATION_ROLE ( 'classification_officer' ) ;
#83 = CLOSED_SHELL ( 'NONE', ( #260, #8, #67, #263, #220, #235 ) ) ;
#84 = AXIS2_PLACEMENT_3D ( 'NONE', #47, #209, #192 ) ;
#85 = EDGE_CURVE ( 'NONE', #166, #166, #216, .T. ) ;
#86 = EDGE_LOOP ( 'NONE', ( #68 ) ) ;
#87 = PERSON_AND_ORGANIZATION ( #248, #113 ) ;
#88 = APPROVAL_ROLE ( '' ) ;
#89 = VERTEX_POINT ( 'NONE', #211 ) ;
#90 = EDGE_LOOP ( 'NONE', ( #183 ) ) ;
#91 = DIRECTION ( 'NONE',  ( -3.491481338843133355E-15, 1.224646799147353207E-16, -1.000000000000000000 ) ) ;
#92 = CIRCLE ( 'NONE', #181, 4.750000000000000000 ) ;
#93 = FACE_OUTER_BOUND ( 'NONE', #252, .T. ) ;
#94 = DIRECTION ( 'NONE',  ( -4.275831445896958607E-31, -1.000000000000000000, -1.224646799147353207E-16 ) ) ;
#95 = AXIS2_PLACEMENT_3D ( 'NONE', #25, #156, #104 ) ;
#96 = DIRECTION ( 'NONE',  ( 0.000000000000000000, 1.000000000000000000, 0.000000000000000000 ) ) ;
#97 = PERSON_AND_ORGANIZATION_ROLE ( 'design_owner' ) ;
#98 = ADVANCED_BREP_SHAPE_REPRESENTATION ( '339001', ( #53, #39, #42 ), #221 ) ;
#99 = DIRECTION ( 'NONE',  ( -3.491481338843133355E-15, 1.224646799147353207E-16, -1.000000000000000000 ) ) ;
#100 = LOCAL_TIME ( 14, 42, 34.00000000000000000, #229 ) ;
#101 = AXIS2_PLACEMENT_3D ( 'NONE', #217, #21, #102 ) ;
#102 = DIRECTION ( 'NONE',  ( 4.275831445896958607E-31, 1.000000000000000000, 1.224646799147353454E-16 ) ) ;
#103 = CARTESIAN_POINT ( 'NONE',  ( 3.421138828918010427E-46, 4.899999999999999467, 0.000000000000000000 ) ) ;
#104 = DIRECTION ( 'NONE',  ( 0.000000000000000000, 1.000000000000000000, 0.000000000000000000 ) ) ;
#105 = APPROVAL_DATE_TIME ( #246, #247 ) ;
#106 = CALENDAR_DATE ( 2024, 12, 7 ) ;
#107 = PERSON_AND_ORGANIZATION_ROLE ( 'design_supplier' ) ;
#108 = APPROVAL_STATUS ( 'not_yet_approved' ) ;
#109 = EDGE_LOOP ( 'NONE', ( #128 ) ) ;
#110 = LOCAL_TIME ( 14, 42, 34.00000000000000000, #64 ) ;
#111 = PLANE ( 'NONE',  #132 ) ;
#112 = ORIENTED_EDGE ( 'NONE', *, *, #188, .T. ) ;
#113 = ORGANIZATION ( 'UNSPECIFIED', 'UNSPECIFIED', '' ) ;
#114 = DIRECTION ( 'NONE',  ( -3.491481338843133355E-15, 1.224646799147353207E-16, -1.000000000000000000 ) ) ;
#115 = CARTESIAN_POINT ( 'NONE',  ( 1.222018468595096801E-13, 4.749999999999995559, 35.00000000000000000 ) ) ;
#116 = FACE_OUTER_BOUND ( 'NONE', #75, .T. ) ;
#117 =( LENGTH_UNIT ( ) NAMED_UNIT ( * ) SI_UNIT ( .MILLI., .METRE. ) );
#118 = CARTESIAN_POINT ( 'NONE',  ( 3.491481338843112648E-16, 0.000000000000000000, 0.09999999999999940881 ) ) ;
#119 = PRODUCT_DEFINITION_FORMATION_WITH_SPECIFIED_SOURCE ( 'ANY', '', #124, .NOT_KNOWN. ) ;
#120 = FACE_OUTER_BOUND ( 'NONE', #139, .T. ) ;
#121 = DIRECTION ( 'NONE',  ( 0.000000000000000000, 0.000000000000000000, 1.000000000000000000 ) ) ;
#122 = DIRECTION ( 'NONE',  ( -4.275831445896958607E-31, -1.000000000000000000, -1.224646799147353207E-16 ) ) ;
#123 = ADVANCED_FACE ( 'NONE', ( #149 ), #19, .T. ) ;
#124 = PRODUCT ( '339001', '339001', '', ( #77 ) ) ;
#125 = AXIS2_PLACEMENT_3D ( 'NONE', #29, #136, #195 ) ;
#126 = ADVANCED_FACE ( 'NONE', ( #16 ), #111, .T. ) ;
#127 = AXIS2_PLACEMENT_3D ( 'NONE', #11, #253, #187 ) ;
#128 = ORIENTED_EDGE ( 'NONE', *, *, #49, .T. ) ;
#129 = CC_DESIGN_PERSON_AND_ORGANIZATION_ASSIGNMENT ( #17, #97, ( #124 ) ) ;
#130 = ORIENTED_EDGE ( 'NONE', *, *, #188, .F. ) ;
#131 = ORIENTED_EDGE ( 'NONE', *, *, #257, .T. ) ;
#132 = AXIS2_PLACEMENT_3D ( 'NONE', #189, #91, #168 ) ;
#133 = VERTEX_POINT ( 'NONE', #51 ) ;
#134 = CARTESIAN_POINT ( 'NONE',  ( 0.000000000000000000, 0.000000000000000000, 0.000000000000000000 ) ) ;
#135 = CC_DESIGN_SECURITY_CLASSIFICATION ( #48, ( #119 ) ) ;
#136 = DIRECTION ( 'NONE',  ( -3.491481338843133355E-15, 1.224646799147353207E-16, -1.000000000000000000 ) ) ;
#137 = DATE_AND_TIME ( #65, #80 ) ;
#138 = DIRECTION ( 'NONE',  ( -3.491481338843133355E-15, 1.224646799147353207E-16, -1.000000000000000000 ) ) ;
#139 = EDGE_LOOP ( 'NONE', ( #258 ) ) ;
#140 = TOROIDAL_SURFACE ( 'NONE', #243, 4.899999999999999467, 0.1000000000000001305 ) ;
#141 = CALENDAR_DATE ( 2024, 12, 7 ) ;
#142 = AXIS2_PLACEMENT_3D ( 'NONE', #134, #52, #35 ) ;
#143 = CLOSED_SHELL ( 'NONE', ( #126, #34, #3, #123 ) ) ;
#144 = CC_DESIGN_APPROVAL ( #251, ( #119 ) ) ;
#145 = APPROVAL_DATE_TIME ( #201, #251 ) ;
#146 = PERSON_AND_ORGANIZATION ( #248, #113 ) ;
#147 = VERTEX_POINT ( 'NONE', #233 ) ;
#148 = DIRECTION ( 'NONE',  ( 0.000000000000000000, 1.000000000000000000, 0.000000000000000000 ) ) ;
#149 = FACE_OUTER_BOUND ( 'NONE', #43, .T. ) ;
#150 = ORIENTED_EDGE ( 'NONE', *, *, #193, .F. ) ;
#151 = AXIS2_PLACEMENT_3D ( 'NONE', #153, #173, #54 ) ;
#152 = APPROVAL ( #162, 'UNSPECIFIED' ) ;
#153 = CARTESIAN_POINT ( 'NONE',  ( 4.189777606611760026E-14, -1.469576158976823947E-15, 12.00000000000000000 ) ) ;
#154 = FACE_OUTER_BOUND ( 'NONE', #109, .T. ) ;
#155 = CARTESIAN_POINT ( 'NONE',  ( 1.230747171942204602E-13, 4.999999999999990230, 35.25000000000000000 ) ) ;
#156 = DIRECTION ( 'NONE',  ( -3.491481338843133355E-15, 1.224646799147353207E-16, -1.000000000000000000 ) ) ;
#157 = AXIS2_PLACEMENT_3D ( 'NONE', #159, #198, #79 ) ;
#158 = VERTEX_POINT ( 'NONE', #103 ) ;
#159 = CARTESIAN_POINT ( 'NONE',  ( 4.189777606611760026E-14, -1.469576158976823947E-15, 12.00000000000000000 ) ) ;
#160 = SECURITY_CLASSIFICATION_LEVEL ( 'unclassified' ) ;
#161 = EDGE_CURVE ( 'NONE', #147, #147, #210, .T. ) ;
#162 = APPROVAL_STATUS ( 'not_yet_approved' ) ;
#163 = ORIENTED_EDGE ( 'NONE', *, *, #85, .T. ) ;
#164 = UNCERTAINTY_MEASURE_WITH_UNIT (LENGTH_MEASURE( 1.000000000000000082E-05 ), #117, 'distance_accuracy_value', 'NONE');
#165 = EDGE_LOOP ( 'NONE', ( #150 ) ) ;
#166 = VERTEX_POINT ( 'NONE', #239 ) ;
#167 = EDGE_LOOP ( 'NONE', ( #59 ) ) ;
#168 = DIRECTION ( 'NONE',  ( 4.275831445896958607E-31, 1.000000000000000000, 1.224646799147353207E-16 ) ) ;
#169 = CIRCLE ( 'NONE', #101, 4.899999999999999467 ) ;
#170 = CARTESIAN_POINT ( 'NONE',  ( 1.222018468595096801E-13, -4.286263797015736496E-15, 35.00000000000000000 ) ) ;
#171 = DIRECTION ( 'NONE',  ( -3.491481338843133355E-15, 1.224646799147353207E-16, -1.000000000000000000 ) ) ;
#172 = CIRCLE ( 'NONE', #151, 4.749999999999999112 ) ;
#173 = DIRECTION ( 'NONE',  ( -3.491481338843133355E-15, 1.224646799147353207E-16, -1.000000000000000000 ) ) ;
#174 = APPROVAL_DATE_TIME ( #137, #152 ) ;
#175 = DIRECTION ( 'NONE',  ( 3.491481338843133355E-15, -1.224646799147353207E-16, 1.000000000000000000 ) ) ;
#176 = APPLICATION_PROTOCOL_DEFINITION ( 'international standard', 'config_control_design', 1994, #194 ) ;
#177 = DIRECTION ( 'NONE',  ( 4.275831445896958607E-31, 1.000000000000000000, 1.224646799147353207E-16 ) ) ;
#178 = CC_DESIGN_PERSON_AND_ORGANIZATION_ASSIGNMENT ( #222, #2, ( #119 ) ) ;
#179 = CARTESIAN_POINT ( 'NONE',  ( 2.618611004132350143E-13, 3.374459510989166480E-32, 75.00000000000000000 ) ) ;
#180 = COORDINATED_UNIVERSAL_TIME_OFFSET ( 1, 0, .AHEAD. ) ;
#181 = AXIS2_PLACEMENT_3D ( 'NONE', #170, #73, #96 ) ;
#182 = ORIENTED_EDGE ( 'NONE', *, *, #27, .T. ) ;
#183 = ORIENTED_EDGE ( 'NONE', *, *, #161, .T. ) ;
#184 = DATE_TIME_ROLE ( 'creation_date' ) ;
#185 = CIRCLE ( 'NONE', #157, 5.000000000000000000 ) ;
#186 = ORIENTED_EDGE ( 'NONE', *, *, #27, .F. ) ;
#187 = DIRECTION ( 'NONE',  ( 4.275831445896959482E-31, 1.000000000000000000, 1.224646799147353207E-16 ) ) ;
#188 = EDGE_CURVE ( 'NONE', #133, #133, #55, .T. ) ;
#189 = CARTESIAN_POINT ( 'NONE',  ( -1.047578704244754675E-30, 3.674411467521551139E-32, -3.000384657911015370E-16 ) ) ;
#190 = FACE_OUTER_BOUND ( 'NONE', #71, .T. ) ;
#191 = LOCAL_TIME ( 14, 42, 34.00000000000000000, #180 ) ;
#192 = DIRECTION ( 'NONE',  ( 4.237045877651918877E-31, 1.000000000000000000, 1.219727444046192488E-16 ) ) ;
#193 = EDGE_CURVE ( 'NONE', #56, #56, #208, .T. ) ;
#194 = APPLICATION_CONTEXT ( 'configuration controlled 3d designs of mechanical parts and assemblies' ) ;
#195 = DIRECTION ( 'NONE',  ( 0.000000000000000000, 1.000000000000000000, 0.000000000000000000 ) ) ;
#196 = FACE_BOUND ( 'NONE', #228, .T. ) ;
#197 = DIRECTION ( 'NONE',  ( 1.000000000000000000, 0.000000000000000000, 0.000000000000000000 ) ) ;
#198 = DIRECTION ( 'NONE',  ( -3.491481338843133355E-15, 1.224646799147353207E-16, -1.000000000000000000 ) ) ;
#199 = APPROVAL_PERSON_ORGANIZATION ( #40, #152, #63 ) ;
#200 = CC_DESIGN_DATE_AND_TIME_ASSIGNMENT ( #38, #4, ( #48 ) ) ;
#201 = DATE_AND_TIME ( #106, #191 ) ;
#202 = CONICAL_SURFACE ( 'NONE', #95, 4.500000000000001776, 0.7853981633974344012 ) ;
#203 = COORDINATED_UNIVERSAL_TIME_OFFSET ( 1, 0, .AHEAD. ) ;
#204 = CALENDAR_DATE ( 2024, 12, 7 ) ;
#205 = PRODUCT_DEFINITION ( 'UNKNOWN', '', #119, #245 ) ;
#206 = EDGE_CURVE ( 'NONE', #158, #158, #169, .T. ) ;
#207 = CYLINDRICAL_SURFACE ( 'NONE', #5, 4.749999999999999112 ) ;
#208 = CIRCLE ( 'NONE', #66, 4.999999999999994671 ) ;
#209 = DIRECTION ( 'NONE',  ( -3.491481338843133355E-15, 1.224646799147353207E-16, -1.000000000000000000 ) ) ;
#210 = CIRCLE ( 'NONE', #37, 4.500000000000001776 ) ;
#211 = CARTESIAN_POINT ( 'NONE',  ( 4.189777606611760026E-14, 4.749999999999997335, 12.00000000000000000 ) ) ;
#212 = CARTESIAN_POINT ( 'NONE',  ( 4.189777606611760026E-14, 4.999999999999998224, 12.00000000000000000 ) ) ;
#213 = EDGE_LOOP ( 'NONE', ( #33 ) ) ;
#214 = SHAPE_DEFINITION_REPRESENTATION ( #1, #98 ) ;
#215 = CARTESIAN_POINT ( 'NONE',  ( 0.000000000000000000, 0.000000000000000000, 0.000000000000000000 ) ) ;
#216 = CIRCLE ( 'NONE', #125, 5.000000000000001776 ) ;
#217 = CARTESIAN_POINT ( 'NONE',  ( -2.095157408489509349E-30, 7.348822935043102278E-32, -6.000769315822030740E-16 ) ) ;
#218 = DIRECTION ( 'NONE',  ( 3.491481338843133355E-15, -1.224646799147353207E-16, 1.000000000000000000 ) ) ;
#219 = DIRECTION ( 'NONE',  ( 0.000000000000000000, 1.000000000000000000, 0.000000000000000000 ) ) ;
#220 = ADVANCED_FACE ( 'NONE', ( #120, #261 ), #202, .T. ) ;
#221 =( GEOMETRIC_REPRESENTATION_CONTEXT ( 3 ) GLOBAL_UNCERTAINTY_ASSIGNED_CONTEXT ( ( #164 ) ) GLOBAL_UNIT_ASSIGNED_CONTEXT ( ( #117, #259, #22 ) ) REPRESENTATION_CONTEXT ( 'NONE', 'WORKASPACE' ) );
#222 = PERSON_AND_ORGANIZATION ( #248, #113 ) ;
#223 = APPROVAL_ROLE ( '' ) ;
#224 = CALENDAR_DATE ( 2024, 12, 7 ) ;
#225 = APPLICATION_CONTEXT ( 'configuration controlled 3d designs of mechanical parts and assemblies' ) ;
#226 = PRODUCT_RELATED_PRODUCT_CATEGORY ( 'detail', '', ( #124 ) ) ;
#227 = AXIS2_PLACEMENT_3D ( 'NONE', #57, #218, #122 ) ;
#228 = EDGE_LOOP ( 'NONE', ( #61 ) ) ;
#229 = COORDINATED_UNIVERSAL_TIME_OFFSET ( 1, 0, .AHEAD. ) ;
#230 = APPROVAL_STATUS ( 'not_yet_approved' ) ;
#231 = AXIS2_PLACEMENT_3D ( 'NONE', #28, #175, #234 ) ;
#232 = EDGE_LOOP ( 'NONE', ( #112 ) ) ;
#233 = CARTESIAN_POINT ( 'NONE',  ( 2.618611004132350143E-13, 4.499999999999992006, 75.00000000000000000 ) ) ;
#234 = DIRECTION ( 'NONE',  ( 0.000000000000000000, -1.000000000000000000, 0.000000000000000000 ) ) ;
#235 = ADVANCED_FACE ( 'NONE', ( #36 ), #62, .F. ) ;
#236 = DIRECTION ( 'NONE',  ( -3.491481338843133355E-15, 1.224646799147353207E-16, -1.000000000000000000 ) ) ;
#237 = CYLINDRICAL_SURFACE ( 'NONE', #127, 4.999999999999998224 ) ;
#238 = FACE_OUTER_BOUND ( 'NONE', #213, .T. ) ;
#239 = CARTESIAN_POINT ( 'NONE',  ( 2.601153597438134034E-13, 4.999999999999992006, 74.49999999999998579 ) ) ;
#240 = CYLINDRICAL_SURFACE ( 'NONE', #142, 5.000000000000000000 ) ;
#241 = PLANE ( 'NONE',  #227 ) ;
#242 = VERTEX_POINT ( 'NONE', #212 ) ;
#243 = AXIS2_PLACEMENT_3D ( 'NONE', #118, #138, #256 ) ;
#244 = PERSON_AND_ORGANIZATION ( #248, #113 ) ;
#245 = DESIGN_CONTEXT ( 'detailed design', #194, 'design' ) ;
#246 = DATE_AND_TIME ( #204, #110 ) ;
#247 = APPROVAL ( #230, 'UNSPECIFIED' ) ;
#248 = PERSON ( 'UNSPECIFIED', 'UNSPECIFIED', 'UNSPECIFIED', ('UNSPECIFIED'), ('UNSPECIFIED'), ('UNSPECIFIED') ) ;
#249 = COORDINATED_UNIVERSAL_TIME_OFFSET ( 1, 0, .AHEAD. ) ;
#250 = APPROVAL_PERSON_ORGANIZATION ( #6, #251, #88 ) ;
#251 = APPROVAL ( #108, 'UNSPECIFIED' ) ;
#252 = EDGE_LOOP ( 'NONE', ( #131 ) ) ;
#253 = DIRECTION ( 'NONE',  ( -3.491481338843133355E-15, 1.224646799147353207E-16, -1.000000000000000000 ) ) ;
#254 = DIRECTION ( 'NONE',  ( 3.491481338843133355E-15, -1.224646799147353207E-16, 1.000000000000000000 ) ) ;
#255 = FACE_OUTER_BOUND ( 'NONE', #86, .T. ) ;
#256 = DIRECTION ( 'NONE',  ( 4.254221714186764048E-31, 1.000000000000000000, 1.224646799147353207E-16 ) ) ;
#257 = EDGE_CURVE ( 'NONE', #242, #242, #185, .T. ) ;
#258 = ORIENTED_EDGE ( 'NONE', *, *, #85, .F. ) ;
#259 =( NAMED_UNIT ( * ) PLANE_ANGLE_UNIT ( ) SI_UNIT ( $, .RADIAN. ) );
#260 = ADVANCED_FACE ( 'NONE', ( #23 ), #241, .F. ) ;
#261 = FACE_BOUND ( 'NONE', #90, .T. ) ;
#262 = CC_DESIGN_APPROVAL ( #247, ( #205 ) ) ;
#263 = ADVANCED_FACE ( 'NONE', ( #74, #72 ), #237, .T. ) ;
ENDSEC;
END-ISO-10303-21;
