ISO-10303-21;
HEADER;
FILE_DESCRIPTION (( 'STEP AP203' ),
    '1' );
FILE_NAME ('339000.step',
    '2024-07-12T12:42:33',
    ( '' ),
    ( '' ),
    'SwSTEP 2.0',
    'SolidWorks 2022',
    '' );
FILE_SCHEMA (( 'CONFIG_CONTROL_DESIGN' ));
ENDSEC;

DATA;
#1 = FACE_OUTER_BOUND ( 'NONE', #82, .T. ) ;
#2 = AXIS2_PLACEMENT_3D ( 'NONE', #244, #53, #110 ) ;
#3 = DATE_AND_TIME ( #106, #224 ) ;
#4 = VERTEX_POINT ( 'NONE', #129 ) ;
#5 = ORIENTED_EDGE ( 'NONE', *, *, #99, .F. ) ;
#6 = PERSON_AND_ORGANIZATION_ROLE ( 'creator' ) ;
#7 = DIRECTION ( 'NONE',  ( -3.491481338843133355E-15, 1.224646799147353207E-16, -1.000000000000000000 ) ) ;
#8 = AXIS2_PLACEMENT_3D ( 'NONE', #29, #116, #199 ) ;
#9 = SECURITY_CLASSIFICATION ( '', '', #187 ) ;
#10 = CALENDAR_DATE ( 2024, 12, 7 ) ;
#11 = CARTESIAN_POINT ( 'NONE',  ( 2.182175836776958284E-13, -7.654042494670957804E-15, 62.50000000000000000 ) ) ;
#12 = CIRCLE ( 'NONE', #239, 3.900000000000000355 ) ;
#13 = FACE_OUTER_BOUND ( 'NONE', #52, .T. ) ;
#14 = DIRECTION ( 'NONE',  ( -3.491481338843133355E-15, 1.224646799147353207E-16, -1.000000000000000000 ) ) ;
#15 = DIRECTION ( 'NONE',  ( -3.491481338843133355E-15, 1.224646799147353207E-16, -1.000000000000000000 ) ) ;
#16 = PRODUCT_DEFINITION_SHAPE ( 'NONE', 'NONE',  #55 ) ;
#17 = DIRECTION ( 'NONE',  ( -3.491481338843133355E-15, 1.224646799147353207E-16, -1.000000000000000000 ) ) ;
#18 = PERSON_AND_ORGANIZATION_ROLE ( 'classification_officer' ) ;
#19 = PERSON_AND_ORGANIZATION_ROLE ( 'design_supplier' ) ;
#20 = APPROVAL_STATUS ( 'not_yet_approved' ) ;
#21 = VERTEX_POINT ( 'NONE', #104 ) ;
#22 = EDGE_LOOP ( 'NONE', ( #5 ) ) ;
#23 = ADVANCED_FACE ( 'NONE', ( #33, #90 ), #172, .T. ) ;
#24 = LOCAL_TIME ( 14, 42, 33.00000000000000000, #62 ) ;
#25 = ORIENTED_EDGE ( 'NONE', *, *, #214, .F. ) ;
#26 = ADVANCED_FACE ( 'NONE', ( #258 ), #160, .T. ) ;
#27 = APPROVAL_DATE_TIME ( #131, #230 ) ;
#28 = FACE_OUTER_BOUND ( 'NONE', #253, .T. ) ;
#29 = CARTESIAN_POINT ( 'NONE',  ( 0.000000000000000000, 0.000000000000000000, 0.000000000000000000 ) ) ;
#30 = ORIENTED_EDGE ( 'NONE', *, *, #67, .F. ) ;
#31 = CIRCLE ( 'NONE', #217, 3.500000000000000888 ) ;
#32 = CARTESIAN_POINT ( 'NONE',  ( 2.444036937190193033E-14, 3.699999999999998845, 6.999999999999999112 ) ) ;
#33 = FACE_OUTER_BOUND ( 'NONE', #72, .T. ) ;
#34 = CC_DESIGN_PERSON_AND_ORGANIZATION_ASSIGNMENT ( #100, #97, ( #57 ) ) ;
#35 = DIRECTION ( 'NONE',  ( 0.000000000000000000, 1.000000000000000000, 0.000000000000000000 ) ) ;
#36 = EDGE_LOOP ( 'NONE', ( #30 ) ) ;
#37 = APPROVAL_PERSON_ORGANIZATION ( #231, #178, #149 ) ;
#38 = AXIS2_PLACEMENT_3D ( 'NONE', #164, #79, #134 ) ;
#39 = AXIS2_PLACEMENT_3D ( 'NONE', #11, #93, #181 ) ;
#40 = APPROVAL_PERSON_ORGANIZATION ( #142, #237, #208 ) ;
#41 = MANIFOLD_SOLID_BREP ( 'Corps-Déplacer/Copier1[1]', #87 ) ;
#42 = EDGE_LOOP ( 'NONE', ( #86 ) ) ;
#43 = CARTESIAN_POINT ( 'NONE',  ( 2.444036937190193033E-14, 3.999999999999999112, 6.999999999999999112 ) ) ;
#44 = COORDINATED_UNIVERSAL_TIME_OFFSET ( 1, 0, .AHEAD. ) ;
#45 = EDGE_LOOP ( 'NONE', ( #157 ) ) ;
#46 = DIRECTION ( 'NONE',  ( -3.491481338843133355E-15, 1.224646799147353207E-16, -1.000000000000000000 ) ) ;
#47 = AXIS2_PLACEMENT_3D ( 'NONE', #159, #118, #137 ) ;
#48 = VERTEX_POINT ( 'NONE', #220 ) ;
#49 = DIRECTION ( 'NONE',  ( 0.000000000000000000, 1.000000000000000000, 0.000000000000000000 ) ) ;
#50 = ADVANCED_FACE ( 'NONE', ( #28, #177 ), #226, .T. ) ;
#51 = FACE_BOUND ( 'NONE', #132, .T. ) ;
#52 = EDGE_LOOP ( 'NONE', ( #121 ) ) ;
#53 = DIRECTION ( 'NONE',  ( -3.491481338843133355E-15, 1.224646799147353207E-16, -1.000000000000000000 ) ) ;
#54 = CC_DESIGN_APPROVAL ( #178, ( #9 ) ) ;
#55 = PRODUCT_DEFINITION ( 'UNKNOWN', '', #94, #69 ) ;
#56 = DIRECTION ( 'NONE',  ( -3.491481338843133355E-15, 1.224646799147353207E-16, -1.000000000000000000 ) ) ;
#57 = PRODUCT ( '339000', '339000', '', ( #184 ) ) ;
#58 = DIRECTION ( 'NONE',  ( -3.491481338843133355E-15, 1.224646799147353207E-16, -1.000000000000000000 ) ) ;
#59 = PLANE ( 'NONE',  #80 ) ;
#60 = AXIS2_PLACEMENT_3D ( 'NONE', #179, #58, #112 ) ;
#61 = ADVANCED_FACE ( 'NONE', ( #13 ), #89, .F. ) ;
#62 = COORDINATED_UNIVERSAL_TIME_OFFSET ( 1, 0, .AHEAD. ) ;
#63 = DIRECTION ( 'NONE',  ( -3.491481338843133355E-15, 1.224646799147353207E-16, -1.000000000000000000 ) ) ;
#64 = CIRCLE ( 'NONE', #65, 3.700000000000000178 ) ;
#65 = AXIS2_PLACEMENT_3D ( 'NONE', #229, #63, #125 ) ;
#66 = APPLICATION_PROTOCOL_DEFINITION ( 'international standard', 'config_control_design', 1994, #235 ) ;
#67 = EDGE_CURVE ( 'NONE', #194, #194, #102, .T. ) ;
#68 = SHAPE_DEFINITION_REPRESENTATION ( #16, #148 ) ;
#69 = DESIGN_CONTEXT ( 'detailed design', #235, 'design' ) ;
#70 = AXIS2_PLACEMENT_3D ( 'NONE', #119, #120, #221 ) ;
#71 = DIRECTION ( 'NONE',  ( 0.000000000000000000, 1.000000000000000000, 0.000000000000000000 ) ) ;
#72 = EDGE_LOOP ( 'NONE', ( #195 ) ) ;
#73 = CC_DESIGN_DATE_AND_TIME_ASSIGNMENT ( #174, #256, ( #9 ) ) ;
#74 = CARTESIAN_POINT ( 'NONE',  ( 3.491481338843134341E-16, 4.000000000000000000, 0.1000000000000000194 ) ) ;
#75 = APPLICATION_PROTOCOL_DEFINITION ( 'international standard', 'config_control_design', 1994, #126 ) ;
#76 = DIRECTION ( 'NONE',  ( 4.275831445896958607E-31, 1.000000000000000000, 1.224646799147353207E-16 ) ) ;
#77 = ORIENTED_EDGE ( 'NONE', *, *, #186, .T. ) ;
#78 =( NAMED_UNIT ( * ) PLANE_ANGLE_UNIT ( ) SI_UNIT ( $, .RADIAN. ) );
#79 = DIRECTION ( 'NONE',  ( -3.491481338843133355E-15, 1.224646799147353207E-16, -1.000000000000000000 ) ) ;
#80 = AXIS2_PLACEMENT_3D ( 'NONE', #139, #255, #76 ) ;
#81 = CC_DESIGN_SECURITY_CLASSIFICATION ( #9, ( #94 ) ) ;
#82 = EDGE_LOOP ( 'NONE', ( #25 ) ) ;
#83 = EDGE_CURVE ( 'NONE', #254, #254, #213, .T. ) ;
#84 = DIRECTION ( 'NONE',  ( 7.703719777548943412E-31, 1.000000000000000000, 2.168404344971008868E-16 ) ) ;
#85 = DIRECTION ( 'NONE',  ( 0.000000000000000000, -1.000000000000000000, 0.000000000000000000 ) ) ;
#86 = ORIENTED_EDGE ( 'NONE', *, *, #248, .T. ) ;
#87 = CLOSED_SHELL ( 'NONE', ( #61, #198, #185, #114, #23, #166 ) ) ;
#88 = CARTESIAN_POINT ( 'NONE',  ( 4.992818314545679436E-14, 3.999999999999992450, 14.29999999999999716 ) ) ;
#89 = PLANE ( 'NONE',  #70 ) ;
#90 = FACE_BOUND ( 'NONE', #42, .T. ) ;
#91 = CARTESIAN_POINT ( 'NONE',  ( -1.667574263899814014E-30, 5.849063152381244671E-32, -4.776122516674678272E-16 ) ) ;
#92 = AXIS2_PLACEMENT_3D ( 'NONE', #173, #14, #204 ) ;
#93 = DIRECTION ( 'NONE',  ( -3.491481338843133355E-15, 1.224646799147353207E-16, -1.000000000000000000 ) ) ;
#94 = PRODUCT_DEFINITION_FORMATION_WITH_SPECIFIED_SOURCE ( 'ANY', '', #57, .NOT_KNOWN. ) ;
#95 =( LENGTH_UNIT ( ) NAMED_UNIT ( * ) SI_UNIT ( .MILLI., .METRE. ) );
#96 = DIRECTION ( 'NONE',  ( 4.275831445896958607E-31, 1.000000000000000000, 1.224646799147353207E-16 ) ) ;
#97 = PERSON_AND_ORGANIZATION_ROLE ( 'design_owner' ) ;
#98 = CIRCLE ( 'NONE', #251, 4.000000000000000000 ) ;
#99 = EDGE_CURVE ( 'NONE', #48, #48, #12, .T. ) ;
#100 = PERSON_AND_ORGANIZATION ( #263, #162 ) ;
#101 = AXIS2_PLACEMENT_3D ( 'NONE', #200, #206, #96 ) ;
#102 = CIRCLE ( 'NONE', #141, 3.999999999999994227 ) ;
#103 = CALENDAR_DATE ( 2024, 12, 7 ) ;
#104 = CARTESIAN_POINT ( 'NONE',  ( 2.182175836776958284E-13, 3.999999999999993339, 62.50000000000000000 ) ) ;
#105 = ORIENTED_EDGE ( 'NONE', *, *, #83, .F. ) ;
#106 = CALENDAR_DATE ( 2024, 12, 7 ) ;
#107 = APPROVAL_DATE_TIME ( #193, #237 ) ;
#108 = VERTEX_POINT ( 'NONE', #32 ) ;
#109 = EDGE_LOOP ( 'NONE', ( #105 ) ) ;
#110 = DIRECTION ( 'NONE',  ( 8.328345705458318623E-31, 1.000000000000000000, 2.344220913482172149E-16 ) ) ;
#111 = PERSON_AND_ORGANIZATION ( #263, #162 ) ;
#112 = DIRECTION ( 'NONE',  ( 4.275831445896958607E-31, 1.000000000000000000, 1.224646799147352961E-16 ) ) ;
#113 = CARTESIAN_POINT ( 'NONE',  ( 0.000000000000000000, 0.000000000000000000, 0.000000000000000000 ) ) ;
#114 = ADVANCED_FACE ( 'NONE', ( #136, #197 ), #183, .T. ) ;
#115 = FACE_OUTER_BOUND ( 'NONE', #152, .T. ) ;
#116 = DIRECTION ( 'NONE',  ( 0.000000000000000000, 0.000000000000000000, 1.000000000000000000 ) ) ;
#117 = DIRECTION ( 'NONE',  ( 4.275831445896957731E-31, 1.000000000000000000, 1.224646799147353207E-16 ) ) ;
#118 = DIRECTION ( 'NONE',  ( 3.491481338843133355E-15, -1.224646799147353207E-16, 1.000000000000000000 ) ) ;
#119 = CARTESIAN_POINT ( 'NONE',  ( 2.444036937190193033E-14, 2.774555597924434932E-32, 6.999999999999999112 ) ) ;
#120 = DIRECTION ( 'NONE',  ( 3.491481338843133355E-15, -1.224646799147353207E-16, 1.000000000000000000 ) ) ;
#121 = ORIENTED_EDGE ( 'NONE', *, *, #214, .T. ) ;
#122 = AXIS2_PLACEMENT_3D ( 'NONE', #113, #15, #117 ) ;
#123 = AXIS2_PLACEMENT_3D ( 'NONE', #222, #257, #85 ) ;
#124 = EDGE_CURVE ( 'NONE', #234, #234, #98, .T. ) ;
#125 = DIRECTION ( 'NONE',  ( 0.000000000000000000, 1.000000000000000000, 0.000000000000000000 ) ) ;
#126 = APPLICATION_CONTEXT ( 'configuration controlled 3d designs of mechanical parts and assemblies' ) ;
#127 = DATE_TIME_ROLE ( 'creation_date' ) ;
#128 = EDGE_LOOP ( 'NONE', ( #176 ) ) ;
#129 = CARTESIAN_POINT ( 'NONE',  ( 4.888073874380386697E-14, 3.699999999999998401, 14.00000000000000000 ) ) ;
#130 = ORIENTED_EDGE ( 'NONE', *, *, #186, .F. ) ;
#131 = DATE_AND_TIME ( #10, #167 ) ;
#132 = EDGE_LOOP ( 'NONE', ( #130 ) ) ;
#133 = COORDINATED_UNIVERSAL_TIME_OFFSET ( 1, 0, .AHEAD. ) ;
#134 = DIRECTION ( 'NONE',  ( 4.275831445896958607E-31, 1.000000000000000000, 1.224646799147353207E-16 ) ) ;
#135 = EDGE_LOOP ( 'NONE', ( #225 ) ) ;
#136 = FACE_OUTER_BOUND ( 'NONE', #36, .T. ) ;
#137 = DIRECTION ( 'NONE',  ( -4.275831445896958607E-31, -1.000000000000000000, -1.224646799147353207E-16 ) ) ;
#138 = CC_DESIGN_PERSON_AND_ORGANIZATION_ASSIGNMENT ( #111, #196, ( #94 ) ) ;
#139 = CARTESIAN_POINT ( 'NONE',  ( 2.199633243471174140E-13, 2.624579619658239866E-32, 63.00000000000000000 ) ) ;
#140 = CLOSED_SHELL ( 'NONE', ( #26, #228, #50, #207 ) ) ;
#141 = AXIS2_PLACEMENT_3D ( 'NONE', #202, #163, #35 ) ;
#142 = PERSON_AND_ORGANIZATION ( #263, #162 ) ;
#143 =( GEOMETRIC_REPRESENTATION_CONTEXT ( 3 ) GLOBAL_UNCERTAINTY_ASSIGNED_CONTEXT ( ( #153 ) ) GLOBAL_UNIT_ASSIGNED_CONTEXT ( ( #95, #78, #175 ) ) REPRESENTATION_CONTEXT ( 'NONE', 'WORKASPACE' ) );
#144 = MANIFOLD_SOLID_BREP ( 'Corps-Déplacer/Copier1[2]', #140 ) ;
#145 = CALENDAR_DATE ( 2024, 12, 7 ) ;
#146 = PERSON_AND_ORGANIZATION ( #263, #162 ) ;
#147 = DIRECTION ( 'NONE',  ( 4.350518211406125841E-31, 1.000000000000000000, 1.224646799147353207E-16 ) ) ;
#148 = ADVANCED_BREP_SHAPE_REPRESENTATION ( '339000', ( #41, #144, #8 ), #143 ) ;
#149 = APPROVAL_ROLE ( '' ) ;
#150 = CARTESIAN_POINT ( 'NONE',  ( 2.199633243471174140E-13, -7.715274834628325378E-15, 63.00000000000000000 ) ) ;
#151 = EDGE_CURVE ( 'NONE', #21, #21, #161, .T. ) ;
#152 = EDGE_LOOP ( 'NONE', ( #189 ) ) ;
#153 = UNCERTAINTY_MEASURE_WITH_UNIT (LENGTH_MEASURE( 1.000000000000000082E-05 ), #95, 'distance_accuracy_value', 'NONE');
#154 = TOROIDAL_SURFACE ( 'NONE', #205, 3.900000000000000355, 0.09999999999999990841 ) ;
#155 = LOCAL_TIME ( 14, 42, 33.00000000000000000, #133 ) ;
#156 = ORIENTED_EDGE ( 'NONE', *, *, #151, .T. ) ;
#157 = ORIENTED_EDGE ( 'NONE', *, *, #248, .F. ) ;
#158 = CC_DESIGN_PERSON_AND_ORGANIZATION_ASSIGNMENT ( #219, #19, ( #94 ) ) ;
#159 = CARTESIAN_POINT ( 'NONE',  ( 2.444036937190193033E-14, 2.999519565323713574E-32, 6.999999999999999112 ) ) ;
#160 = PLANE ( 'NONE',  #101 ) ;
#161 = CIRCLE ( 'NONE', #39, 4.000000000000000888 ) ;
#162 = ORGANIZATION ( 'UNSPECIFIED', 'UNSPECIFIED', '' ) ;
#163 = DIRECTION ( 'NONE',  ( -3.491481338843133355E-15, 1.224646799147353207E-16, -1.000000000000000000 ) ) ;
#164 = CARTESIAN_POINT ( 'NONE',  ( 0.000000000000000000, 0.000000000000000000, 0.000000000000000000 ) ) ;
#165 = APPROVAL_STATUS ( 'not_yet_approved' ) ;
#166 = ADVANCED_FACE ( 'NONE', ( #259 ), #59, .F. ) ;
#167 = LOCAL_TIME ( 14, 42, 33.00000000000000000, #44 ) ;
#168 = APPROVAL_STATUS ( 'not_yet_approved' ) ;
#169 = COORDINATED_UNIVERSAL_TIME_OFFSET ( 1, 0, .AHEAD. ) ;
#170 = FACE_OUTER_BOUND ( 'NONE', #135, .T. ) ;
#171 = ORIENTED_EDGE ( 'NONE', *, *, #124, .T. ) ;
#172 = CONICAL_SURFACE ( 'NONE', #262, 3.500000000000000888, 0.7853981633974479459 ) ;
#173 = CARTESIAN_POINT ( 'NONE',  ( 3.491481338843117085E-16, -1.224646799147347414E-17, 0.09999999999999953371 ) ) ;
#174 = DATE_AND_TIME ( #103, #155 ) ;
#175 =( NAMED_UNIT ( * ) SI_UNIT ( $, .STERADIAN. ) SOLID_ANGLE_UNIT ( ) );
#176 = ORIENTED_EDGE ( 'NONE', *, *, #67, .T. ) ;
#177 = FACE_OUTER_BOUND ( 'NONE', #109, .T. ) ;
#178 = APPROVAL ( #168, 'UNSPECIFIED' ) ;
#179 = CARTESIAN_POINT ( 'NONE',  ( 0.000000000000000000, 0.000000000000000000, 0.000000000000000000 ) ) ;
#180 = CC_DESIGN_APPROVAL ( #237, ( #55 ) ) ;
#181 = DIRECTION ( 'NONE',  ( 0.000000000000000000, 1.000000000000000000, 0.000000000000000000 ) ) ;
#182 = APPROVAL_PERSON_ORGANIZATION ( #212, #230, #236 ) ;
#183 = CYLINDRICAL_SURFACE ( 'NONE', #122, 3.999999999999997335 ) ;
#184 = MECHANICAL_CONTEXT ( 'NONE', #126, 'mechanical' ) ;
#185 = ADVANCED_FACE ( 'NONE', ( #242, #51 ), #216, .T. ) ;
#186 = EDGE_CURVE ( 'NONE', #4, #4, #64, .T. ) ;
#187 = SECURITY_CLASSIFICATION_LEVEL ( 'unclassified' ) ;
#188 = PERSON_AND_ORGANIZATION ( #263, #162 ) ;
#189 = ORIENTED_EDGE ( 'NONE', *, *, #124, .F. ) ;
#190 = CC_DESIGN_PERSON_AND_ORGANIZATION_ASSIGNMENT ( #188, #18, ( #9 ) ) ;
#191 = CC_DESIGN_APPROVAL ( #230, ( #94 ) ) ;
#192 = FACE_OUTER_BOUND ( 'NONE', #22, .T. ) ;
#193 = DATE_AND_TIME ( #145, #24 ) ;
#194 = VERTEX_POINT ( 'NONE', #88 ) ;
#195 = ORIENTED_EDGE ( 'NONE', *, *, #151, .F. ) ;
#196 = PERSON_AND_ORGANIZATION_ROLE ( 'creator' ) ;
#197 = FACE_OUTER_BOUND ( 'NONE', #249, .T. ) ;
#198 = ADVANCED_FACE ( 'NONE', ( #210, #1 ), #240, .T. ) ;
#199 = DIRECTION ( 'NONE',  ( 1.000000000000000000, 0.000000000000000000, 0.000000000000000000 ) ) ;
#200 = CARTESIAN_POINT ( 'NONE',  ( -8.337871319499070071E-31, 2.924531576190622335E-32, -2.388061258337339136E-16 ) ) ;
#201 = CARTESIAN_POINT ( 'NONE',  ( 2.199633243471174140E-13, 3.499999999999993339, 63.00000000000000000 ) ) ;
#202 = CARTESIAN_POINT ( 'NONE',  ( 4.992818314545679436E-14, -1.751244922780714709E-15, 14.29999999999999716 ) ) ;
#203 = VERTEX_POINT ( 'NONE', #201 ) ;
#204 = DIRECTION ( 'NONE',  ( 4.333342374871280669E-31, 1.000000000000000000, 1.219727444046192488E-16 ) ) ;
#205 = AXIS2_PLACEMENT_3D ( 'NONE', #238, #46, #147 ) ;
#206 = DIRECTION ( 'NONE',  ( -3.491481338843133355E-15, 1.224646799147353207E-16, -1.000000000000000000 ) ) ;
#207 = ADVANCED_FACE ( 'NONE', ( #115 ), #261, .T. ) ;
#208 = APPROVAL_ROLE ( '' ) ;
#209 = PRODUCT_RELATED_PRODUCT_CATEGORY ( 'detail', '', ( #57 ) ) ;
#210 = FACE_OUTER_BOUND ( 'NONE', #227, .T. ) ;
#211 = EDGE_LOOP ( 'NONE', ( #215 ) ) ;
#212 = PERSON_AND_ORGANIZATION ( #263, #162 ) ;
#213 = CIRCLE ( 'NONE', #92, 4.000000000000000000 ) ;
#214 = EDGE_CURVE ( 'NONE', #108, #108, #223, .T. ) ;
#215 = ORIENTED_EDGE ( 'NONE', *, *, #99, .T. ) ;
#216 = CONICAL_SURFACE ( 'NONE', #123, 3.700000000000000178, 0.7853981633974439491 ) ;
#217 = AXIS2_PLACEMENT_3D ( 'NONE', #150, #7, #71 ) ;
#218 = CC_DESIGN_DATE_AND_TIME_ASSIGNMENT ( #233, #127, ( #55 ) ) ;
#219 = PERSON_AND_ORGANIZATION ( #263, #162 ) ;
#220 = CARTESIAN_POINT ( 'NONE',  ( 0.000000000000000000, 3.900000000000000355, 0.000000000000000000 ) ) ;
#221 = DIRECTION ( 'NONE',  ( -4.275831445896958607E-31, -1.000000000000000000, -1.224646799147353207E-16 ) ) ;
#222 = CARTESIAN_POINT ( 'NONE',  ( 4.888073874380386697E-14, -1.714505518806294638E-15, 14.00000000000000000 ) ) ;
#223 = CIRCLE ( 'NONE', #2, 3.699999999999999734 ) ;
#224 = LOCAL_TIME ( 14, 42, 33.00000000000000000, #250 ) ;
#225 = ORIENTED_EDGE ( 'NONE', *, *, #83, .T. ) ;
#226 = CYLINDRICAL_SURFACE ( 'NONE', #38, 4.000000000000000000 ) ;
#227 = EDGE_LOOP ( 'NONE', ( #77 ) ) ;
#228 = ADVANCED_FACE ( 'NONE', ( #170, #192 ), #154, .T. ) ;
#229 = CARTESIAN_POINT ( 'NONE',  ( 4.888073874380386697E-14, -1.714505518806294638E-15, 14.00000000000000000 ) ) ;
#230 = APPROVAL ( #20, 'UNSPECIFIED' ) ;
#231 = PERSON_AND_ORGANIZATION ( #263, #162 ) ;
#232 = APPROVAL_DATE_TIME ( #3, #178 ) ;
#233 = DATE_AND_TIME ( #252, #247 ) ;
#234 = VERTEX_POINT ( 'NONE', #43 ) ;
#235 = APPLICATION_CONTEXT ( 'configuration controlled 3d designs of mechanical parts and assemblies' ) ;
#236 = APPROVAL_ROLE ( '' ) ;
#237 = APPROVAL ( #165, 'UNSPECIFIED' ) ;
#238 = CARTESIAN_POINT ( 'NONE',  ( 3.491481338843117085E-16, 0.000000000000000000, 0.09999999999999953371 ) ) ;
#239 = AXIS2_PLACEMENT_3D ( 'NONE', #91, #56, #241 ) ;
#240 = CYLINDRICAL_SURFACE ( 'NONE', #60, 3.700000000000000178 ) ;
#241 = DIRECTION ( 'NONE',  ( 4.275831445896958607E-31, 1.000000000000000000, 1.224646799147353207E-16 ) ) ;
#242 = FACE_OUTER_BOUND ( 'NONE', #128, .T. ) ;
#243 = CARTESIAN_POINT ( 'NONE',  ( 2.199633243471174140E-13, -7.715274834628325378E-15, 63.00000000000000000 ) ) ;
#244 = CARTESIAN_POINT ( 'NONE',  ( 2.444036937190192718E-14, -8.572527594031471218E-16, 6.999999999999998224 ) ) ;
#245 = CC_DESIGN_PERSON_AND_ORGANIZATION_ASSIGNMENT ( #146, #6, ( #55 ) ) ;
#246 = CARTESIAN_POINT ( 'NONE',  ( 2.444036937190192718E-14, -8.572527594031471218E-16, 6.999999999999998224 ) ) ;
#247 = LOCAL_TIME ( 14, 42, 33.00000000000000000, #169 ) ;
#248 = EDGE_CURVE ( 'NONE', #203, #203, #31, .T. ) ;
#249 = EDGE_LOOP ( 'NONE', ( #156 ) ) ;
#250 = COORDINATED_UNIVERSAL_TIME_OFFSET ( 1, 0, .AHEAD. ) ;
#251 = AXIS2_PLACEMENT_3D ( 'NONE', #246, #260, #84 ) ;
#252 = CALENDAR_DATE ( 2024, 12, 7 ) ;
#253 = EDGE_LOOP ( 'NONE', ( #171 ) ) ;
#254 = VERTEX_POINT ( 'NONE', #74 ) ;
#255 = DIRECTION ( 'NONE',  ( -3.491481338843133355E-15, 1.224646799147353207E-16, -1.000000000000000000 ) ) ;
#256 = DATE_TIME_ROLE ( 'classification_date' ) ;
#257 = DIRECTION ( 'NONE',  ( 3.491481338843133355E-15, -1.224646799147353207E-16, 1.000000000000000000 ) ) ;
#258 = FACE_OUTER_BOUND ( 'NONE', #211, .T. ) ;
#259 = FACE_OUTER_BOUND ( 'NONE', #45, .T. ) ;
#260 = DIRECTION ( 'NONE',  ( -3.491481338843133355E-15, 1.224646799147353207E-16, -1.000000000000000000 ) ) ;
#261 = PLANE ( 'NONE',  #47 ) ;
#262 = AXIS2_PLACEMENT_3D ( 'NONE', #243, #17, #49 ) ;
#263 = PERSON ( 'UNSPECIFIED', 'UNSPECIFIED', 'UNSPECIFIED', ('UNSPECIFIED'), ('UNSPECIFIED'), ('UNSPECIFIED') ) ;
ENDSEC;
END-ISO-10303-21;
