ISO-10303-21;
HEADER;
FILE_DESCRIPTION (( 'STEP AP203' ),
    '1' );
FILE_NAME ('338996.step',
    '2024-07-12T12:42:32',
    ( '' ),
    ( '' ),
    'SwSTEP 2.0',
    'SolidWorks 2022',
    '' );
FILE_SCHEMA (( 'CONFIG_CONTROL_DESIGN' ));
ENDSEC;

DATA;
#1 = VERTEX_POINT ( 'NONE', #244 ) ;
#2 = DIRECTION ( 'NONE',  ( 0.000000000000000000, 1.000000000000000000, 0.000000000000000000 ) ) ;
#3 = VERTEX_POINT ( 'NONE', #81 ) ;
#4 = EDGE_LOOP ( 'NONE', ( #46 ) ) ;
#5 = EDGE_CURVE ( 'NONE', #99, #99, #68, .T. ) ;
#6 = CARTESIAN_POINT ( 'NONE',  ( 2.094888803305880013E-14, -7.347880794884119736E-16, 6.000000000000000000 ) ) ;
#7 = CC_DESIGN_APPROVAL ( #128, ( #144 ) ) ;
#8 = CONICAL_SURFACE ( 'NONE', #155, 2.749999999999999556, 0.7853981633974415066 ) ;
#9 = ORIENTED_EDGE ( 'NONE', *, *, #77, .F. ) ;
#10 = DIRECTION ( 'NONE',  ( -3.491481338843133355E-15, 1.224646799147353207E-16, -1.000000000000000000 ) ) ;
#11 = ORIENTED_EDGE ( 'NONE', *, *, #216, .T. ) ;
#12 = PERSON_AND_ORGANIZATION ( #131, #55 ) ;
#13 = PERSON_AND_ORGANIZATION ( #131, #55 ) ;
#14 = EDGE_LOOP ( 'NONE', ( #22 ) ) ;
#15 = DATE_AND_TIME ( #71, #38 ) ;
#16 = EDGE_CURVE ( 'NONE', #200, #200, #91, .T. ) ;
#17 = PERSON_AND_ORGANIZATION_ROLE ( 'creator' ) ;
#18 = CIRCLE ( 'NONE', #106, 2.999999999999994227 ) ;
#19 = FACE_OUTER_BOUND ( 'NONE', #20, .T. ) ;
#20 = EDGE_LOOP ( 'NONE', ( #36 ) ) ;
#21 = EDGE_LOOP ( 'NONE', ( #134 ) ) ;
#22 = ORIENTED_EDGE ( 'NONE', *, *, #178, .F. ) ;
#23 = ADVANCED_FACE ( 'NONE', ( #94, #231 ), #28, .T. ) ;
#24 = DIRECTION ( 'NONE',  ( 3.491481338843133355E-15, -1.224646799147353207E-16, 1.000000000000000000 ) ) ;
#25 = CC_DESIGN_PERSON_AND_ORGANIZATION_ASSIGNMENT ( #251, #174, ( #56 ) ) ;
#26 = FACE_OUTER_BOUND ( 'NONE', #14, .T. ) ;
#27 = CC_DESIGN_SECURITY_CLASSIFICATION ( #144, ( #243 ) ) ;
#28 = CYLINDRICAL_SURFACE ( 'NONE', #188, 2.749999999999999556 ) ;
#29 = PERSON_AND_ORGANIZATION ( #131, #55 ) ;
#30 = CARTESIAN_POINT ( 'NONE',  ( 2.094888803305880013E-14, 2.062169701160052842E-32, 6.000000000000000000 ) ) ;
#31 = DIRECTION ( 'NONE',  ( 4.275831445896958607E-31, 1.000000000000000000, 1.224646799147353207E-16 ) ) ;
#32 = PRODUCT_DEFINITION_SHAPE ( 'NONE', 'NONE',  #187 ) ;
#33 = AXIS2_PLACEMENT_3D ( 'NONE', #181, #58, #83 ) ;
#34 = ORIENTED_EDGE ( 'NONE', *, *, #98, .T. ) ;
#35 = CARTESIAN_POINT ( 'NONE',  ( 3.491481338843134341E-16, 3.000000000000000000, 0.1000000000000000194 ) ) ;
#36 = ORIENTED_EDGE ( 'NONE', *, *, #77, .T. ) ;
#37 = AXIS2_PLACEMENT_3D ( 'NONE', #160, #169, #31 ) ;
#38 = LOCAL_TIME ( 14, 42, 32.00000000000000000, #194 ) ;
#39 = DIRECTION ( 'NONE',  ( 4.275831445896958607E-31, 1.000000000000000000, 1.224646799147353207E-16 ) ) ;
#40 = CARTESIAN_POINT ( 'NONE',  ( 1.990144363140586139E-13, -6.980486755139912911E-15, 57.00000000000000000 ) ) ;
#41 = CARTESIAN_POINT ( 'NONE',  ( 3.491481338843121029E-16, -1.224646799147348955E-17, 0.09999999999999965861 ) ) ;
#42 = MANIFOLD_SOLID_BREP ( 'Corps-Déplacer/Copier1[2]', #248 ) ;
#43 = FACE_OUTER_BOUND ( 'NONE', #90, .T. ) ;
#44 = APPROVAL ( #117, 'UNSPECIFIED' ) ;
#45 = PERSON_AND_ORGANIZATION_ROLE ( 'design_supplier' ) ;
#46 = ORIENTED_EDGE ( 'NONE', *, *, #207, .T. ) ;
#47 = DIRECTION ( 'NONE',  ( -3.491481338843133355E-15, 1.224646799147353207E-16, -1.000000000000000000 ) ) ;
#48 = DIRECTION ( 'NONE',  ( 3.491481338843133355E-15, -1.224646799147353207E-16, 1.000000000000000000 ) ) ;
#49 = APPROVAL_STATUS ( 'not_yet_approved' ) ;
#50 = AXIS2_PLACEMENT_3D ( 'NONE', #30, #69, #157 ) ;
#51 = TOROIDAL_SURFACE ( 'NONE', #162, 2.900000000000000355, 0.09999999999999990841 ) ;
#52 = APPROVAL_ROLE ( '' ) ;
#53 = CC_DESIGN_PERSON_AND_ORGANIZATION_ASSIGNMENT ( #29, #115, ( #144 ) ) ;
#54 = DIRECTION ( 'NONE',  ( 0.000000000000000000, 1.000000000000000000, 0.000000000000000000 ) ) ;
#55 = ORGANIZATION ( 'UNSPECIFIED', 'UNSPECIFIED', '' ) ;
#56 = PRODUCT ( '338996', '338996', '', ( #84 ) ) ;
#57 =( NAMED_UNIT ( * ) SI_UNIT ( $, .STERADIAN. ) SOLID_ANGLE_UNIT ( ) );
#58 = DIRECTION ( 'NONE',  ( -3.491481338843133355E-15, 1.224646799147353207E-16, -1.000000000000000000 ) ) ;
#59 = DIRECTION ( 'NONE',  ( 4.350518211406126717E-31, 1.000000000000000000, 1.224646799147353207E-16 ) ) ;
#60 = EDGE_LOOP ( 'NONE', ( #180 ) ) ;
#61 = ORIENTED_EDGE ( 'NONE', *, *, #16, .T. ) ;
#62 = AXIS2_PLACEMENT_3D ( 'NONE', #40, #176, #183 ) ;
#63 = ADVANCED_FACE ( 'NONE', ( #139 ), #72, .T. ) ;
#64 = LOCAL_TIME ( 14, 42, 32.00000000000000000, #211 ) ;
#65 = EDGE_LOOP ( 'NONE', ( #252 ) ) ;
#66 = CARTESIAN_POINT ( 'NONE',  ( 0.000000000000000000, 0.000000000000000000, 0.000000000000000000 ) ) ;
#67 = EDGE_LOOP ( 'NONE', ( #9 ) ) ;
#68 = CIRCLE ( 'NONE', #203, 2.900000000000000355 ) ;
#69 = DIRECTION ( 'NONE',  ( 3.491481338843133355E-15, -1.224646799147353207E-16, 1.000000000000000000 ) ) ;
#70 = AXIS2_PLACEMENT_3D ( 'NONE', #66, #234, #209 ) ;
#71 = CALENDAR_DATE ( 2024, 12, 7 ) ;
#72 = PLANE ( 'NONE',  #37 ) ;
#73 = ADVANCED_FACE ( 'NONE', ( #74 ), #254, .F. ) ;
#74 = FACE_OUTER_BOUND ( 'NONE', #125, .T. ) ;
#75 = COORDINATED_UNIVERSAL_TIME_OFFSET ( 1, 0, .AHEAD. ) ;
#76 = CARTESIAN_POINT ( 'NONE',  ( 4.277064640082838045E-14, -1.500192328955507537E-15, 12.24999999999999822 ) ) ;
#77 = EDGE_CURVE ( 'NONE', #3, #3, #236, .T. ) ;
#78 = CARTESIAN_POINT ( 'NONE',  ( 2.094888803305880013E-14, 2.999999999999999112, 6.000000000000000000 ) ) ;
#79 = CONICAL_SURFACE ( 'NONE', #62, 2.499999999999997780, 0.7853981633974479459 ) ;
#80 = ADVANCED_FACE ( 'NONE', ( #238, #212 ), #79, .T. ) ;
#81 = CARTESIAN_POINT ( 'NONE',  ( 1.972686956446370535E-13, 2.999999999999991118, 56.50000000000000000 ) ) ;
#82 = EDGE_LOOP ( 'NONE', ( #154 ) ) ;
#83 = DIRECTION ( 'NONE',  ( 4.275831445896959482E-31, 1.000000000000000000, 1.224646799147353207E-16 ) ) ;
#84 = MECHANICAL_CONTEXT ( 'NONE', #190, 'mechanical' ) ;
#85 = UNCERTAINTY_MEASURE_WITH_UNIT (LENGTH_MEASURE( 1.000000000000000082E-05 ), #197, 'distance_accuracy_value', 'NONE');
#86 = APPROVAL_DATE_TIME ( #201, #128 ) ;
#87 = APPROVAL_PERSON_ORGANIZATION ( #13, #44, #242 ) ;
#88 = DIRECTION ( 'NONE',  ( -4.275831445896958607E-31, -1.000000000000000000, -1.224646799147353207E-16 ) ) ;
#89 = EDGE_LOOP ( 'NONE', ( #34 ) ) ;
#90 = EDGE_LOOP ( 'NONE', ( #105 ) ) ;
#91 = CIRCLE ( 'NONE', #127, 3.000000000000000000 ) ;
#92 = DIRECTION ( 'NONE',  ( -3.491481338843133355E-15, 1.224646799147353207E-16, -1.000000000000000000 ) ) ;
#93 = PERSON_AND_ORGANIZATION ( #131, #55 ) ;
#94 = FACE_OUTER_BOUND ( 'NONE', #89, .T. ) ;
#95 = DATE_AND_TIME ( #97, #129 ) ;
#96 = DATE_AND_TIME ( #143, #119 ) ;
#97 = CALENDAR_DATE ( 2024, 12, 7 ) ;
#98 = EDGE_CURVE ( 'NONE', #1, #1, #191, .T. ) ;
#99 = VERTEX_POINT ( 'NONE', #225 ) ;
#100 = AXIS2_PLACEMENT_3D ( 'NONE', #240, #48, #88 ) ;
#101 = PRODUCT_RELATED_PRODUCT_CATEGORY ( 'detail', '', ( #56 ) ) ;
#102 = DIRECTION ( 'NONE',  ( -3.491481338843133355E-15, 1.224646799147353207E-16, -1.000000000000000000 ) ) ;
#103 = EDGE_LOOP ( 'NONE', ( #61 ) ) ;
#104 = CARTESIAN_POINT ( 'NONE',  ( 1.990144363140586139E-13, 2.499999999999991118, 57.00000000000000000 ) ) ;
#105 = ORIENTED_EDGE ( 'NONE', *, *, #5, .F. ) ;
#106 = AXIS2_PLACEMENT_3D ( 'NONE', #76, #219, #54 ) ;
#107 = APPROVAL ( #49, 'UNSPECIFIED' ) ;
#108 = FACE_OUTER_BOUND ( 'NONE', #82, .T. ) ;
#109 = DIRECTION ( 'NONE',  ( 0.000000000000000000, -1.000000000000000000, 0.000000000000000000 ) ) ;
#110 = DIRECTION ( 'NONE',  ( 0.000000000000000000, 1.000000000000000000, 0.000000000000000000 ) ) ;
#111 = PLANE ( 'NONE',  #168 ) ;
#112 = FACE_OUTER_BOUND ( 'NONE', #103, .T. ) ;
#113 = COORDINATED_UNIVERSAL_TIME_OFFSET ( 1, 0, .AHEAD. ) ;
#114 = CARTESIAN_POINT ( 'NONE',  ( 0.000000000000000000, 0.000000000000000000, 0.000000000000000000 ) ) ;
#115 = PERSON_AND_ORGANIZATION_ROLE ( 'classification_officer' ) ;
#116 = DIRECTION ( 'NONE',  ( -3.491481338843133355E-15, 1.224646799147353207E-16, -1.000000000000000000 ) ) ;
#117 = APPROVAL_STATUS ( 'not_yet_approved' ) ;
#118 = CARTESIAN_POINT ( 'NONE',  ( 1.990144363140586139E-13, 1.874699728327309967E-32, 57.00000000000000000 ) ) ;
#119 = LOCAL_TIME ( 14, 42, 32.00000000000000000, #113 ) ;
#120 = ADVANCED_FACE ( 'NONE', ( #26 ), #175, .T. ) ;
#121 = APPLICATION_PROTOCOL_DEFINITION ( 'international standard', 'config_control_design', 1994, #133 ) ;
#122 = ADVANCED_FACE ( 'NONE', ( #214 ), #111, .F. ) ;
#123 = CARTESIAN_POINT ( 'NONE',  ( 1.990144363140586139E-13, -6.980486755139912911E-15, 57.00000000000000000 ) ) ;
#124 = LOCAL_TIME ( 14, 42, 32.00000000000000000, #166 ) ;
#125 = EDGE_LOOP ( 'NONE', ( #11 ) ) ;
#126 = EDGE_LOOP ( 'NONE', ( #198 ) ) ;
#127 = AXIS2_PLACEMENT_3D ( 'NONE', #41, #170, #135 ) ;
#128 = APPROVAL ( #229, 'UNSPECIFIED' ) ;
#129 = LOCAL_TIME ( 14, 42, 32.00000000000000000, #75 ) ;
#130 = ORIENTED_EDGE ( 'NONE', *, *, #98, .F. ) ;
#131 = PERSON ( 'UNSPECIFIED', 'UNSPECIFIED', 'UNSPECIFIED', ('UNSPECIFIED'), ('UNSPECIFIED'), ('UNSPECIFIED') ) ;
#132 = FACE_OUTER_BOUND ( 'NONE', #235, .T. ) ;
#133 = APPLICATION_CONTEXT ( 'configuration controlled 3d designs of mechanical parts and assemblies' ) ;
#134 = ORIENTED_EDGE ( 'NONE', *, *, #216, .F. ) ;
#135 = DIRECTION ( 'NONE',  ( 4.333342374871280669E-31, 1.000000000000000000, 1.219727444046192488E-16 ) ) ;
#136 = CARTESIAN_POINT ( 'NONE',  ( 4.189777606611760026E-14, -1.469576158976823947E-15, 12.00000000000000000 ) ) ;
#137 = CYLINDRICAL_SURFACE ( 'NONE', #256, 3.000000000000000000 ) ;
#138 = DATE_AND_TIME ( #163, #64 ) ;
#139 = FACE_OUTER_BOUND ( 'NONE', #204, .T. ) ;
#140 = DATE_TIME_ROLE ( 'creation_date' ) ;
#141 = PERSON_AND_ORGANIZATION ( #131, #55 ) ;
#142 = CLOSED_SHELL ( 'NONE', ( #73, #23, #167, #263, #80, #122 ) ) ;
#143 = CALENDAR_DATE ( 2024, 12, 7 ) ;
#144 = SECURITY_CLASSIFICATION ( '', '', #258 ) ;
#145 = VERTEX_POINT ( 'NONE', #221 ) ;
#146 = VERTEX_POINT ( 'NONE', #78 ) ;
#147 = FACE_OUTER_BOUND ( 'NONE', #60, .T. ) ;
#148 = ORIENTED_EDGE ( 'NONE', *, *, #5, .T. ) ;
#149 = APPROVAL_ROLE ( '' ) ;
#150 = CIRCLE ( 'NONE', #173, 2.749999999999999556 ) ;
#151 = ORIENTED_EDGE ( 'NONE', *, *, #195, .T. ) ;
#152 = DIRECTION ( 'NONE',  ( 0.000000000000000000, 1.000000000000000000, 0.000000000000000000 ) ) ;
#153 = CARTESIAN_POINT ( 'NONE',  ( 0.000000000000000000, 0.000000000000000000, 0.000000000000000000 ) ) ;
#154 = ORIENTED_EDGE ( 'NONE', *, *, #16, .F. ) ;
#155 = AXIS2_PLACEMENT_3D ( 'NONE', #206, #24, #109 ) ;
#156 = AXIS2_PLACEMENT_3D ( 'NONE', #123, #196, #2 ) ;
#157 = DIRECTION ( 'NONE',  ( -4.275831445896958607E-31, -1.000000000000000000, -1.224646799147353207E-16 ) ) ;
#158 = CC_DESIGN_PERSON_AND_ORGANIZATION_ASSIGNMENT ( #141, #17, ( #243 ) ) ;
#159 = APPROVAL_DATE_TIME ( #15, #107 ) ;
#160 = CARTESIAN_POINT ( 'NONE',  ( -6.199955596550589892E-31, 2.174651684859693805E-32, -1.775737858763662163E-16 ) ) ;
#161 = APPROVAL_DATE_TIME ( #95, #44 ) ;
#162 = AXIS2_PLACEMENT_3D ( 'NONE', #246, #102, #59 ) ;
#163 = CALENDAR_DATE ( 2024, 12, 7 ) ;
#164 = VERTEX_POINT ( 'NONE', #104 ) ;
#165 = CC_DESIGN_DATE_AND_TIME_ASSIGNMENT ( #96, #177, ( #144 ) ) ;
#166 = COORDINATED_UNIVERSAL_TIME_OFFSET ( 1, 0, .AHEAD. ) ;
#167 = ADVANCED_FACE ( 'NONE', ( #132, #232 ), #8, .T. ) ;
#168 = AXIS2_PLACEMENT_3D ( 'NONE', #118, #259, #39 ) ;
#169 = DIRECTION ( 'NONE',  ( -3.491481338843133355E-15, 1.224646799147353207E-16, -1.000000000000000000 ) ) ;
#170 = DIRECTION ( 'NONE',  ( -3.491481338843133355E-15, 1.224646799147353207E-16, -1.000000000000000000 ) ) ;
#171 = DIRECTION ( 'NONE',  ( 4.275831445896957731E-31, 1.000000000000000000, 1.224646799147352961E-16 ) ) ;
#172 = CARTESIAN_POINT ( 'NONE',  ( 2.094888803305880013E-14, -7.347880794884119736E-16, 6.000000000000000000 ) ) ;
#173 = AXIS2_PLACEMENT_3D ( 'NONE', #172, #47, #110 ) ;
#174 = PERSON_AND_ORGANIZATION_ROLE ( 'design_owner' ) ;
#175 = PLANE ( 'NONE',  #100 ) ;
#176 = DIRECTION ( 'NONE',  ( -3.491481338843133355E-15, 1.224646799147353207E-16, -1.000000000000000000 ) ) ;
#177 = DATE_TIME_ROLE ( 'classification_date' ) ;
#178 = EDGE_CURVE ( 'NONE', #146, #146, #199, .T. ) ;
#179 =( NAMED_UNIT ( * ) PLANE_ANGLE_UNIT ( ) SI_UNIT ( $, .RADIAN. ) );
#180 = ORIENTED_EDGE ( 'NONE', *, *, #195, .F. ) ;
#181 = CARTESIAN_POINT ( 'NONE',  ( 0.000000000000000000, 0.000000000000000000, 0.000000000000000000 ) ) ;
#182 = ADVANCED_BREP_SHAPE_REPRESENTATION ( '338996', ( #215, #42, #70 ), #217 ) ;
#183 = DIRECTION ( 'NONE',  ( 0.000000000000000000, 1.000000000000000000, 0.000000000000000000 ) ) ;
#184 = CC_DESIGN_APPROVAL ( #44, ( #243 ) ) ;
#185 = DIRECTION ( 'NONE',  ( 0.000000000000000000, 1.000000000000000000, 0.000000000000000000 ) ) ;
#186 = DIRECTION ( 'NONE',  ( -3.491481338843133355E-15, 1.224646799147353207E-16, -1.000000000000000000 ) ) ;
#187 = PRODUCT_DEFINITION ( 'UNKNOWN', '', #243, #245 ) ;
#188 = AXIS2_PLACEMENT_3D ( 'NONE', #114, #186, #193 ) ;
#189 = DIRECTION ( 'NONE',  ( 0.000000000000000000, 1.000000000000000000, 0.000000000000000000 ) ) ;
#190 = APPLICATION_CONTEXT ( 'configuration controlled 3d designs of mechanical parts and assemblies' ) ;
#191 = CIRCLE ( 'NONE', #255, 2.749999999999999556 ) ;
#192 = AXIS2_PLACEMENT_3D ( 'NONE', #6, #253, #185 ) ;
#193 = DIRECTION ( 'NONE',  ( 4.275831445896958607E-31, 1.000000000000000000, 1.224646799147353207E-16 ) ) ;
#194 = COORDINATED_UNIVERSAL_TIME_OFFSET ( 1, 0, .AHEAD. ) ;
#195 = EDGE_CURVE ( 'NONE', #224, #224, #18, .T. ) ;
#196 = DIRECTION ( 'NONE',  ( -3.491481338843133355E-15, 1.224646799147353207E-16, -1.000000000000000000 ) ) ;
#197 =( LENGTH_UNIT ( ) NAMED_UNIT ( * ) SI_UNIT ( .MILLI., .METRE. ) );
#198 = ORIENTED_EDGE ( 'NONE', *, *, #178, .T. ) ;
#199 = CIRCLE ( 'NONE', #192, 3.000000000000000000 ) ;
#200 = VERTEX_POINT ( 'NONE', #35 ) ;
#201 = DATE_AND_TIME ( #249, #124 ) ;
#202 = CARTESIAN_POINT ( 'NONE',  ( 4.277064640082838045E-14, 2.999999999999993339, 12.24999999999999822 ) ) ;
#203 = AXIS2_PLACEMENT_3D ( 'NONE', #257, #10, #171 ) ;
#204 = EDGE_LOOP ( 'NONE', ( #148 ) ) ;
#205 = CC_DESIGN_APPROVAL ( #107, ( #187 ) ) ;
#206 = CARTESIAN_POINT ( 'NONE',  ( 4.189777606611760026E-14, -1.469576158976823947E-15, 12.00000000000000000 ) ) ;
#207 = EDGE_CURVE ( 'NONE', #164, #164, #223, .T. ) ;
#208 = CARTESIAN_POINT ( 'NONE',  ( 1.972686956446370535E-13, -6.919254415182545337E-15, 56.50000000000000000 ) ) ;
#209 = DIRECTION ( 'NONE',  ( 1.000000000000000000, 0.000000000000000000, 0.000000000000000000 ) ) ;
#210 = EDGE_LOOP ( 'NONE', ( #130 ) ) ;
#211 = COORDINATED_UNIVERSAL_TIME_OFFSET ( 1, 0, .AHEAD. ) ;
#212 = FACE_BOUND ( 'NONE', #4, .T. ) ;
#213 = PERSON_AND_ORGANIZATION ( #131, #55 ) ;
#214 = FACE_OUTER_BOUND ( 'NONE', #65, .T. ) ;
#215 = MANIFOLD_SOLID_BREP ( 'Corps-Déplacer/Copier1[1]', #142 ) ;
#216 = EDGE_CURVE ( 'NONE', #145, #145, #150, .T. ) ;
#217 =( GEOMETRIC_REPRESENTATION_CONTEXT ( 3 ) GLOBAL_UNCERTAINTY_ASSIGNED_CONTEXT ( ( #85 ) ) GLOBAL_UNIT_ASSIGNED_CONTEXT ( ( #197, #179, #57 ) ) REPRESENTATION_CONTEXT ( 'NONE', 'WORKASPACE' ) );
#218 = PERSON_AND_ORGANIZATION ( #131, #55 ) ;
#219 = DIRECTION ( 'NONE',  ( -3.491481338843133355E-15, 1.224646799147353207E-16, -1.000000000000000000 ) ) ;
#220 = CC_DESIGN_PERSON_AND_ORGANIZATION_ASSIGNMENT ( #218, #45, ( #243 ) ) ;
#221 = CARTESIAN_POINT ( 'NONE',  ( 2.094888803305880013E-14, 2.749999999999998668, 6.000000000000000000 ) ) ;
#222 = CYLINDRICAL_SURFACE ( 'NONE', #33, 2.999999999999996003 ) ;
#223 = CIRCLE ( 'NONE', #156, 2.499999999999997780 ) ;
#224 = VERTEX_POINT ( 'NONE', #202 ) ;
#225 = CARTESIAN_POINT ( 'NONE',  ( 0.000000000000000000, 2.900000000000000355, 0.000000000000000000 ) ) ;
#226 = SHAPE_DEFINITION_REPRESENTATION ( #32, #182 ) ;
#227 = APPROVAL_PERSON_ORGANIZATION ( #93, #107, #52 ) ;
#228 = FACE_OUTER_BOUND ( 'NONE', #126, .T. ) ;
#229 = APPROVAL_STATUS ( 'not_yet_approved' ) ;
#230 = APPLICATION_PROTOCOL_DEFINITION ( 'international standard', 'config_control_design', 1994, #190 ) ;
#231 = FACE_OUTER_BOUND ( 'NONE', #21, .T. ) ;
#232 = FACE_BOUND ( 'NONE', #210, .T. ) ;
#233 = ADVANCED_FACE ( 'NONE', ( #228, #108 ), #137, .T. ) ;
#234 = DIRECTION ( 'NONE',  ( 0.000000000000000000, 0.000000000000000000, 1.000000000000000000 ) ) ;
#235 = EDGE_LOOP ( 'NONE', ( #151 ) ) ;
#236 = CIRCLE ( 'NONE', #262, 2.999999999999997780 ) ;
#237 = DIRECTION ( 'NONE',  ( -3.491481338843133355E-15, 1.224646799147353207E-16, -1.000000000000000000 ) ) ;
#238 = FACE_OUTER_BOUND ( 'NONE', #67, .T. ) ;
#239 = PERSON_AND_ORGANIZATION_ROLE ( 'creator' ) ;
#240 = CARTESIAN_POINT ( 'NONE',  ( 2.094888803305880013E-14, 2.249639673992785317E-32, 6.000000000000000000 ) ) ;
#241 = APPROVAL_PERSON_ORGANIZATION ( #12, #128, #149 ) ;
#242 = APPROVAL_ROLE ( '' ) ;
#243 = PRODUCT_DEFINITION_FORMATION_WITH_SPECIFIED_SOURCE ( 'ANY', '', #56, .NOT_KNOWN. ) ;
#244 = CARTESIAN_POINT ( 'NONE',  ( 4.189777606611760026E-14, 2.749999999999998224, 12.00000000000000000 ) ) ;
#245 = DESIGN_CONTEXT ( 'detailed design', #133, 'design' ) ;
#246 = CARTESIAN_POINT ( 'NONE',  ( 3.491481338843121029E-16, 0.000000000000000000, 0.09999999999999965861 ) ) ;
#247 = CC_DESIGN_PERSON_AND_ORGANIZATION_ASSIGNMENT ( #213, #239, ( #187 ) ) ;
#248 = CLOSED_SHELL ( 'NONE', ( #63, #261, #233, #120 ) ) ;
#249 = CALENDAR_DATE ( 2024, 12, 7 ) ;
#250 = CC_DESIGN_DATE_AND_TIME_ASSIGNMENT ( #138, #140, ( #187 ) ) ;
#251 = PERSON_AND_ORGANIZATION ( #131, #55 ) ;
#252 = ORIENTED_EDGE ( 'NONE', *, *, #207, .F. ) ;
#253 = DIRECTION ( 'NONE',  ( -3.491481338843133355E-15, 1.224646799147353207E-16, -1.000000000000000000 ) ) ;
#254 = PLANE ( 'NONE',  #50 ) ;
#255 = AXIS2_PLACEMENT_3D ( 'NONE', #136, #116, #189 ) ;
#256 = AXIS2_PLACEMENT_3D ( 'NONE', #153, #237, #260 ) ;
#257 = CARTESIAN_POINT ( 'NONE',  ( -1.239991119310117978E-30, 4.349303369719387610E-32, -3.551475717527324325E-16 ) ) ;
#258 = SECURITY_CLASSIFICATION_LEVEL ( 'unclassified' ) ;
#259 = DIRECTION ( 'NONE',  ( -3.491481338843133355E-15, 1.224646799147353207E-16, -1.000000000000000000 ) ) ;
#260 = DIRECTION ( 'NONE',  ( 4.275831445896959482E-31, 1.000000000000000000, 1.224646799147353207E-16 ) ) ;
#261 = ADVANCED_FACE ( 'NONE', ( #112, #43 ), #51, .T. ) ;
#262 = AXIS2_PLACEMENT_3D ( 'NONE', #208, #92, #152 ) ;
#263 = ADVANCED_FACE ( 'NONE', ( #147, #19 ), #222, .T. ) ;
ENDSEC;
END-ISO-10303-21;
