ISO-10303-21;
HEADER;
FILE_DESCRIPTION (( 'STEP AP203' ),
    '1' );
FILE_NAME ('338995.step',
    '2024-07-12T12:42:32',
    ( '' ),
    ( '' ),
    'SwSTEP 2.0',
    'SolidWorks 2022',
    '' );
FILE_SCHEMA (( 'CONFIG_CONTROL_DESIGN' ));
ENDSEC;

DATA;
#1 = DIRECTION ( 'NONE',  ( 3.491481338843133355E-15, -1.224646799147353207E-16, 1.000000000000000000 ) ) ;
#2 = DIRECTION ( 'NONE',  ( -3.491481338843133355E-15, 1.224646799147353207E-16, -1.000000000000000000 ) ) ;
#3 = DIRECTION ( 'NONE',  ( -3.491481338843133355E-15, 1.224646799147353207E-16, -1.000000000000000000 ) ) ;
#4 = CARTESIAN_POINT ( 'NONE',  ( -6.817623523041364504E-31, 2.391300429533650197E-32, -1.952644984005646896E-16 ) ) ;
#5 = AXIS2_PLACEMENT_3D ( 'NONE', #237, #36, #121 ) ;
#6 = CC_DESIGN_APPROVAL ( #76, ( #47 ) ) ;
#7 = DIRECTION ( 'NONE',  ( -3.491481338843133355E-15, 1.224646799147353207E-16, -1.000000000000000000 ) ) ;
#8 = EDGE_CURVE ( 'NONE', #43, #43, #139, .T. ) ;
#9 = TOROIDAL_SURFACE ( 'NONE', #195, 1.400000000000000133, 0.09999999999999968636 ) ;
#10 = EDGE_LOOP ( 'NONE', ( #154 ) ) ;
#11 = CARTESIAN_POINT ( 'NONE',  ( 1.396592535537252711E-14, -4.898587196589410857E-16, 3.999999999999998224 ) ) ;
#12 = PERSON_AND_ORGANIZATION_ROLE ( 'creator' ) ;
#13 = ADVANCED_FACE ( 'NONE', ( #92 ), #223, .F. ) ;
#14 = ORIENTED_EDGE ( 'NONE', *, *, #107, .T. ) ;
#15 = DATE_AND_TIME ( #220, #53 ) ;
#16 = DIRECTION ( 'NONE',  ( -3.491481338843133355E-15, 1.224646799147353207E-16, -1.000000000000000000 ) ) ;
#17 = LOCAL_TIME ( 14, 42, 32.00000000000000000, #216 ) ;
#18 = DATE_AND_TIME ( #202, #108 ) ;
#19 = CARTESIAN_POINT ( 'NONE',  ( 3.491481338843124481E-16, -1.224646799147350033E-17, 0.09999999999999974187 ) ) ;
#20 = APPROVAL_DATE_TIME ( #165, #73 ) ;
#21 = FACE_OUTER_BOUND ( 'NONE', #32, .T. ) ;
#22 = CLOSED_SHELL ( 'NONE', ( #79, #120, #205, #145 ) ) ;
#23 = DIRECTION ( 'NONE',  ( 0.000000000000000000, 1.000000000000000000, 0.000000000000000000 ) ) ;
#24 = VERTEX_POINT ( 'NONE', #102 ) ;
#25 = EDGE_CURVE ( 'NONE', #62, #62, #218, .T. ) ;
#26 = VERTEX_POINT ( 'NONE', #104 ) ;
#27 = CC_DESIGN_PERSON_AND_ORGANIZATION_ASSIGNMENT ( #245, #110, ( #214 ) ) ;
#28 = APPROVAL_PERSON_ORGANIZATION ( #160, #70, #198 ) ;
#29 = EDGE_CURVE ( 'NONE', #24, #24, #114, .T. ) ;
#30 = ORIENTED_EDGE ( 'NONE', *, *, #34, .T. ) ;
#31 = CALENDAR_DATE ( 2024, 12, 7 ) ;
#32 = EDGE_LOOP ( 'NONE', ( #239 ) ) ;
#33 = COORDINATED_UNIVERSAL_TIME_OFFSET ( 1, 0, .AHEAD. ) ;
#34 = EDGE_CURVE ( 'NONE', #187, #187, #88, .T. ) ;
#35 = PLANE ( 'NONE',  #38 ) ;
#36 = DIRECTION ( 'NONE',  ( -3.491481338843133355E-15, 1.224646799147353207E-16, -1.000000000000000000 ) ) ;
#37 = COORDINATED_UNIVERSAL_TIME_OFFSET ( 1, 0, .AHEAD. ) ;
#38 = AXIS2_PLACEMENT_3D ( 'NONE', #192, #7, #87 ) ;
#39 = PLANE ( 'NONE',  #163 ) ;
#40 = CIRCLE ( 'NONE', #83, 1.400000000000000133 ) ;
#41 = DIRECTION ( 'NONE',  ( 3.491481338843133355E-15, -1.224646799147353207E-16, 1.000000000000000000 ) ) ;
#42 = DIRECTION ( 'NONE',  ( -3.491481338843133355E-15, 1.224646799147353207E-16, -1.000000000000000000 ) ) ;
#43 = VERTEX_POINT ( 'NONE', #167 ) ;
#44 = MANIFOLD_SOLID_BREP ( 'Corps-Déplacer/Copier1[2]', #22 ) ;
#45 = AXIS2_PLACEMENT_3D ( 'NONE', #208, #2, #64 ) ;
#46 = DIRECTION ( 'NONE',  ( 4.275831445896959482E-31, 1.000000000000000000, 1.224646799147353207E-16 ) ) ;
#47 = PRODUCT_DEFINITION ( 'UNKNOWN', '', #65, #189 ) ;
#48 = CC_DESIGN_SECURITY_CLASSIFICATION ( #214, ( #65 ) ) ;
#49 = DIRECTION ( 'NONE',  ( 0.000000000000000000, 1.000000000000000000, 0.000000000000000000 ) ) ;
#50 = DATE_TIME_ROLE ( 'creation_date' ) ;
#51 = EDGE_LOOP ( 'NONE', ( #72 ) ) ;
#52 = APPROVAL_STATUS ( 'not_yet_approved' ) ;
#53 = LOCAL_TIME ( 14, 42, 32.00000000000000000, #177 ) ;
#54 = EDGE_LOOP ( 'NONE', ( #137 ) ) ;
#55 = EDGE_LOOP ( 'NONE', ( #240 ) ) ;
#56 = CYLINDRICAL_SURFACE ( 'NONE', #203, 1.300000000000000488 ) ;
#57 = CC_DESIGN_DATE_AND_TIME_ASSIGNMENT ( #91, #247, ( #214 ) ) ;
#58 = DIRECTION ( 'NONE',  ( 4.275831445896959482E-31, 1.000000000000000000, 1.224646799147353207E-16 ) ) ;
#59 = CONICAL_SURFACE ( 'NONE', #148, 1.300000000000000711, 0.7853981633974428389 ) ;
#60 = COORDINATED_UNIVERSAL_TIME_OFFSET ( 1, 0, .AHEAD. ) ;
#61 = FACE_OUTER_BOUND ( 'NONE', #242, .T. ) ;
#62 = VERTEX_POINT ( 'NONE', #142 ) ;
#63 = ADVANCED_FACE ( 'NONE', ( #69, #97 ), #56, .T. ) ;
#64 = DIRECTION ( 'NONE',  ( 0.000000000000000000, 1.000000000000000000, 0.000000000000000000 ) ) ;
#65 = PRODUCT_DEFINITION_FORMATION_WITH_SPECIFIED_SOURCE ( 'ANY', '', #184, .NOT_KNOWN. ) ;
#66 = VERTEX_POINT ( 'NONE', #146 ) ;
#67 =( LENGTH_UNIT ( ) NAMED_UNIT ( * ) SI_UNIT ( .MILLI., .METRE. ) );
#68 = CIRCLE ( 'NONE', #174, 1.499999999999999556 ) ;
#69 = FACE_OUTER_BOUND ( 'NONE', #116, .T. ) ;
#70 = APPROVAL ( #153, 'UNSPECIFIED' ) ;
#71 = DIRECTION ( 'NONE',  ( -3.491481338843133355E-15, 1.224646799147353207E-16, -1.000000000000000000 ) ) ;
#72 = ORIENTED_EDGE ( 'NONE', *, *, #128, .T. ) ;
#73 = APPROVAL ( #162, 'UNSPECIFIED' ) ;
#74 = DIRECTION ( 'NONE',  ( 4.275831445896959482E-31, 1.000000000000000000, 1.224646799147353207E-16 ) ) ;
#75 = PERSON_AND_ORGANIZATION ( #106, #232 ) ;
#76 = APPROVAL ( #52, 'UNSPECIFIED' ) ;
#77 = DIRECTION ( 'NONE',  ( 0.000000000000000000, -1.000000000000000000, 0.000000000000000000 ) ) ;
#78 = PLANE ( 'NONE',  #89 ) ;
#79 = ADVANCED_FACE ( 'NONE', ( #226 ), #35, .T. ) ;
#80 = FACE_BOUND ( 'NONE', #118, .T. ) ;
#81 = DIRECTION ( 'NONE',  ( 3.491481338843133355E-15, -1.224646799147353207E-16, 1.000000000000000000 ) ) ;
#82 = FACE_OUTER_BOUND ( 'NONE', #54, .T. ) ;
#83 = AXIS2_PLACEMENT_3D ( 'NONE', #4, #185, #263 ) ;
#84 = CC_DESIGN_PERSON_AND_ORGANIZATION_ASSIGNMENT ( #75, #132, ( #65 ) ) ;
#85 = AXIS2_PLACEMENT_3D ( 'NONE', #262, #180, #254 ) ;
#86 = ADVANCED_FACE ( 'NONE', ( #150, #131 ), #59, .T. ) ;
#87 = DIRECTION ( 'NONE',  ( 4.275831445896958607E-31, 1.000000000000000000, 1.224646799147353207E-16 ) ) ;
#88 = CIRCLE ( 'NONE', #171, 1.300000000000000711 ) ;
#89 = AXIS2_PLACEMENT_3D ( 'NONE', #125, #41, #164 ) ;
#90 = EDGE_LOOP ( 'NONE', ( #197 ) ) ;
#91 = DATE_AND_TIME ( #31, #17 ) ;
#92 = FACE_OUTER_BOUND ( 'NONE', #55, .T. ) ;
#93 = APPLICATION_PROTOCOL_DEFINITION ( 'international standard', 'config_control_design', 1994, #103 ) ;
#94 = ORIENTED_EDGE ( 'NONE', *, *, #107, .F. ) ;
#95 = PERSON_AND_ORGANIZATION_ROLE ( 'creator' ) ;
#96 = CIRCLE ( 'NONE', #191, 1.300000000000000266 ) ;
#97 = FACE_OUTER_BOUND ( 'NONE', #217, .T. ) ;
#98 = PERSON_AND_ORGANIZATION ( #106, #232 ) ;
#99 = CARTESIAN_POINT ( 'NONE',  ( 0.000000000000000000, 0.000000000000000000, 0.000000000000000000 ) ) ;
#100 = DIRECTION ( 'NONE',  ( 4.172848212839012475E-31, 1.000000000000000000, 1.264902534566422168E-16 ) ) ;
#101 = AXIS2_PLACEMENT_3D ( 'NONE', #201, #16, #159 ) ;
#102 = CARTESIAN_POINT ( 'NONE',  ( 2.601153597438134034E-13, 2.999999999999987121, 74.50000000000000000 ) ) ;
#103 = APPLICATION_CONTEXT ( 'configuration controlled 3d designs of mechanical parts and assemblies' ) ;
#104 = CARTESIAN_POINT ( 'NONE',  ( 3.491481338843130890E-16, 1.499999999999999556, 0.09999999999999993616 ) ) ;
#105 = APPROVAL_PERSON_ORGANIZATION ( #229, #73, #231 ) ;
#106 = PERSON ( 'UNSPECIFIED', 'UNSPECIFIED', 'UNSPECIFIED', ('UNSPECIFIED'), ('UNSPECIFIED'), ('UNSPECIFIED') ) ;
#107 = EDGE_CURVE ( 'NONE', #26, #26, #68, .T. ) ;
#108 = LOCAL_TIME ( 14, 42, 32.00000000000000000, #33 ) ;
#109 = ORIENTED_EDGE ( 'NONE', *, *, #8, .T. ) ;
#110 = PERSON_AND_ORGANIZATION_ROLE ( 'classification_officer' ) ;
#111 = PRODUCT_RELATED_PRODUCT_CATEGORY ( 'detail', '', ( #184 ) ) ;
#112 = CARTESIAN_POINT ( 'NONE',  ( 5.237222008264700033E-14, -1.836970198721029589E-15, 15.00000000000000000 ) ) ;
#113 = PERSON_AND_ORGANIZATION ( #106, #232 ) ;
#114 = CIRCLE ( 'NONE', #101, 2.999999999999996003 ) ;
#115 = CIRCLE ( 'NONE', #129, 2.999999999999993339 ) ;
#116 = EDGE_LOOP ( 'NONE', ( #30 ) ) ;
#117 = PERSON_AND_ORGANIZATION ( #106, #232 ) ;
#118 = EDGE_LOOP ( 'NONE', ( #109 ) ) ;
#119 = PERSON_AND_ORGANIZATION_ROLE ( 'design_owner' ) ;
#120 = ADVANCED_FACE ( 'NONE', ( #161, #21 ), #9, .T. ) ;
#121 = DIRECTION ( 'NONE',  ( 4.275831445896958607E-31, 1.000000000000000000, 1.224646799147353207E-16 ) ) ;
#122 = VERTEX_POINT ( 'NONE', #204 ) ;
#123 = CALENDAR_DATE ( 2024, 12, 7 ) ;
#124 = CYLINDRICAL_SURFACE ( 'NONE', #213, 2.999999999999994671 ) ;
#125 = CARTESIAN_POINT ( 'NONE',  ( 1.396592535537252395E-14, -4.625929269271482956E-15, 3.999999999999997335 ) ) ;
#126 = DIRECTION ( 'NONE',  ( -3.491481338843133355E-15, 1.224646799147353207E-16, -1.000000000000000000 ) ) ;
#127 = CARTESIAN_POINT ( 'NONE',  ( 5.237222008264700033E-14, 1.299999999999999156, 15.00000000000000000 ) ) ;
#128 = EDGE_CURVE ( 'NONE', #169, #169, #40, .T. ) ;
#129 = AXIS2_PLACEMENT_3D ( 'NONE', #228, #126, #23 ) ;
#130 = ADVANCED_FACE ( 'NONE', ( #206, #227 ), #124, .T. ) ;
#131 = FACE_BOUND ( 'NONE', #133, .T. ) ;
#132 = PERSON_AND_ORGANIZATION_ROLE ( 'design_supplier' ) ;
#133 = EDGE_LOOP ( 'NONE', ( #215 ) ) ;
#134 = EDGE_LOOP ( 'NONE', ( #173 ) ) ;
#135 = CARTESIAN_POINT ( 'NONE',  ( 0.000000000000000000, 0.000000000000000000, 0.000000000000000000 ) ) ;
#136 = EDGE_CURVE ( 'NONE', #66, #66, #115, .T. ) ;
#137 = ORIENTED_EDGE ( 'NONE', *, *, #25, .T. ) ;
#138 = CARTESIAN_POINT ( 'NONE',  ( 0.000000000000000000, 0.000000000000000000, 0.000000000000000000 ) ) ;
#139 = CIRCLE ( 'NONE', #85, 2.499999999999995559 ) ;
#140 = CARTESIAN_POINT ( 'NONE',  ( 1.396592535537252395E-14, -4.625929269271482956E-15, 3.999999999999997335 ) ) ;
#141 = DIRECTION ( 'NONE',  ( 0.000000000000000000, 1.000000000000000000, 0.000000000000000000 ) ) ;
#142 = CARTESIAN_POINT ( 'NONE',  ( 1.396592535537252711E-14, 1.499999999999999556, 3.999999999999998224 ) ) ;
#143 = DIRECTION ( 'NONE',  ( 4.032296063841926675E-31, 1.000000000000000000, 1.224646799147353207E-16 ) ) ;
#144 = AXIS2_PLACEMENT_3D ( 'NONE', #135, #193, #224 ) ;
#145 = ADVANCED_FACE ( 'NONE', ( #61 ), #39, .T. ) ;
#146 = CARTESIAN_POINT ( 'NONE',  ( 5.830773835868035859E-14, 2.999999999999991118, 16.70000000000000995 ) ) ;
#147 = CONICAL_SURFACE ( 'NONE', #45, 2.499999999999995559, 0.7853981633974482790 ) ;
#148 = AXIS2_PLACEMENT_3D ( 'NONE', #112, #81, #77 ) ;
#149 = CC_DESIGN_DATE_AND_TIME_ASSIGNMENT ( #18, #50, ( #47 ) ) ;
#150 = FACE_OUTER_BOUND ( 'NONE', #199, .T. ) ;
#151 =( NAMED_UNIT ( * ) SI_UNIT ( $, .STERADIAN. ) SOLID_ANGLE_UNIT ( ) );
#152 = ORIENTED_EDGE ( 'NONE', *, *, #25, .F. ) ;
#153 = APPROVAL_STATUS ( 'not_yet_approved' ) ;
#154 = ORIENTED_EDGE ( 'NONE', *, *, #29, .T. ) ;
#155 = ADVANCED_FACE ( 'NONE', ( #233 ), #78, .F. ) ;
#156 = LOCAL_TIME ( 14, 42, 32.00000000000000000, #37 ) ;
#157 = ORIENTED_EDGE ( 'NONE', *, *, #178, .F. ) ;
#158 = SECURITY_CLASSIFICATION_LEVEL ( 'unclassified' ) ;
#159 = DIRECTION ( 'NONE',  ( 0.000000000000000000, 1.000000000000000000, 0.000000000000000000 ) ) ;
#160 = PERSON_AND_ORGANIZATION ( #106, #232 ) ;
#161 = FACE_OUTER_BOUND ( 'NONE', #194, .T. ) ;
#162 = APPROVAL_STATUS ( 'not_yet_approved' ) ;
#163 = AXIS2_PLACEMENT_3D ( 'NONE', #140, #1, #186 ) ;
#164 = DIRECTION ( 'NONE',  ( -4.275831445896958607E-31, -1.000000000000000000, -1.224646799147353207E-16 ) ) ;
#165 = DATE_AND_TIME ( #123, #251 ) ;
#166 = PRODUCT_DEFINITION_SHAPE ( 'NONE', 'NONE',  #47 ) ;
#167 = CARTESIAN_POINT ( 'NONE',  ( 2.618611004132350143E-13, 2.499999999999986677, 75.00000000000000000 ) ) ;
#168 = FACE_OUTER_BOUND ( 'NONE', #255, .T. ) ;
#169 = VERTEX_POINT ( 'NONE', #252 ) ;
#170 = CC_DESIGN_APPROVAL ( #73, ( #214 ) ) ;
#171 = AXIS2_PLACEMENT_3D ( 'NONE', #257, #71, #49 ) ;
#172 = APPROVAL_PERSON_ORGANIZATION ( #113, #76, #200 ) ;
#173 = ORIENTED_EDGE ( 'NONE', *, *, #178, .T. ) ;
#174 = AXIS2_PLACEMENT_3D ( 'NONE', #19, #249, #100 ) ;
#175 = PERSON_AND_ORGANIZATION ( #106, #232 ) ;
#176 = ORIENTED_EDGE ( 'NONE', *, *, #29, .F. ) ;
#177 = COORDINATED_UNIVERSAL_TIME_OFFSET ( 1, 0, .AHEAD. ) ;
#178 = EDGE_CURVE ( 'NONE', #122, #122, #96, .T. ) ;
#179 = EDGE_LOOP ( 'NONE', ( #176 ) ) ;
#180 = DIRECTION ( 'NONE',  ( -3.491481338843133355E-15, 1.224646799147353207E-16, -1.000000000000000000 ) ) ;
#181 = DATE_AND_TIME ( #196, #156 ) ;
#182 = AXIS2_PLACEMENT_3D ( 'NONE', #188, #42, #46 ) ;
#183 = DIRECTION ( 'NONE',  ( -3.491481338843133355E-15, 1.224646799147353207E-16, -1.000000000000000000 ) ) ;
#184 = PRODUCT ( '338995', '338995', '', ( #241 ) ) ;
#185 = DIRECTION ( 'NONE',  ( -3.491481338843133355E-15, 1.224646799147353207E-16, -1.000000000000000000 ) ) ;
#186 = DIRECTION ( 'NONE',  ( -4.275831445896958607E-31, -1.000000000000000000, -1.224646799147353207E-16 ) ) ;
#187 = VERTEX_POINT ( 'NONE', #127 ) ;
#188 = CARTESIAN_POINT ( 'NONE',  ( 0.000000000000000000, 0.000000000000000000, 0.000000000000000000 ) ) ;
#189 = DESIGN_CONTEXT ( 'detailed design', #234, 'design' ) ;
#190 = CLOSED_SHELL ( 'NONE', ( #155, #63, #86, #130, #253, #13 ) ) ;
#191 = AXIS2_PLACEMENT_3D ( 'NONE', #211, #248, #141 ) ;
#192 = CARTESIAN_POINT ( 'NONE',  ( -3.408811761520682252E-31, 1.195650214766825099E-32, -9.763224920028234481E-17 ) ) ;
#193 = DIRECTION ( 'NONE',  ( 0.000000000000000000, 0.000000000000000000, 1.000000000000000000 ) ) ;
#194 = EDGE_LOOP ( 'NONE', ( #14 ) ) ;
#195 = AXIS2_PLACEMENT_3D ( 'NONE', #210, #3, #143 ) ;
#196 = CALENDAR_DATE ( 2024, 12, 7 ) ;
#197 = ORIENTED_EDGE ( 'NONE', *, *, #136, .F. ) ;
#198 = APPROVAL_ROLE ( '' ) ;
#199 = EDGE_LOOP ( 'NONE', ( #259 ) ) ;
#200 = APPROVAL_ROLE ( '' ) ;
#201 = CARTESIAN_POINT ( 'NONE',  ( 2.601153597438134034E-13, -9.123618653647781159E-15, 74.50000000000000000 ) ) ;
#202 = CALENDAR_DATE ( 2024, 12, 7 ) ;
#203 = AXIS2_PLACEMENT_3D ( 'NONE', #138, #183, #74 ) ;
#204 = CARTESIAN_POINT ( 'NONE',  ( 1.396592535537252711E-14, 1.300000000000000044, 3.999999999999998224 ) ) ;
#205 = ADVANCED_FACE ( 'NONE', ( #82, #168 ), #250, .T. ) ;
#206 = FACE_OUTER_BOUND ( 'NONE', #90, .T. ) ;
#207 = SHAPE_DEFINITION_REPRESENTATION ( #166, #212 ) ;
#208 = CARTESIAN_POINT ( 'NONE',  ( 2.618611004132350143E-13, -9.184850993605148733E-15, 75.00000000000000000 ) ) ;
#209 = UNCERTAINTY_MEASURE_WITH_UNIT (LENGTH_MEASURE( 1.000000000000000082E-05 ), #67, 'distance_accuracy_value', 'NONE');
#210 = CARTESIAN_POINT ( 'NONE',  ( 3.491481338843124974E-16, 0.000000000000000000, 0.09999999999999975575 ) ) ;
#211 = CARTESIAN_POINT ( 'NONE',  ( 1.396592535537252711E-14, -4.898587196589410857E-16, 3.999999999999998224 ) ) ;
#212 = ADVANCED_BREP_SHAPE_REPRESENTATION ( '338995', ( #235, #44, #144 ), #219 ) ;
#213 = AXIS2_PLACEMENT_3D ( 'NONE', #99, #246, #58 ) ;
#214 = SECURITY_CLASSIFICATION ( '', '', #158 ) ;
#215 = ORIENTED_EDGE ( 'NONE', *, *, #34, .F. ) ;
#216 = COORDINATED_UNIVERSAL_TIME_OFFSET ( 1, 0, .AHEAD. ) ;
#217 = EDGE_LOOP ( 'NONE', ( #157 ) ) ;
#218 = CIRCLE ( 'NONE', #258, 1.500000000000000000 ) ;
#219 =( GEOMETRIC_REPRESENTATION_CONTEXT ( 3 ) GLOBAL_UNCERTAINTY_ASSIGNED_CONTEXT ( ( #209 ) ) GLOBAL_UNIT_ASSIGNED_CONTEXT ( ( #67, #222, #151 ) ) REPRESENTATION_CONTEXT ( 'NONE', 'WORKASPACE' ) );
#220 = CALENDAR_DATE ( 2024, 12, 7 ) ;
#221 = DIRECTION ( 'NONE',  ( 0.000000000000000000, 1.000000000000000000, 0.000000000000000000 ) ) ;
#222 =( NAMED_UNIT ( * ) PLANE_ANGLE_UNIT ( ) SI_UNIT ( $, .RADIAN. ) );
#223 = PLANE ( 'NONE',  #5 ) ;
#224 = DIRECTION ( 'NONE',  ( 1.000000000000000000, 0.000000000000000000, 0.000000000000000000 ) ) ;
#225 = CC_DESIGN_PERSON_AND_ORGANIZATION_ASSIGNMENT ( #175, #95, ( #47 ) ) ;
#226 = FACE_OUTER_BOUND ( 'NONE', #51, .T. ) ;
#227 = FACE_OUTER_BOUND ( 'NONE', #10, .T. ) ;
#228 = CARTESIAN_POINT ( 'NONE',  ( 5.830773835868035859E-14, -2.045160154576080997E-15, 16.70000000000000995 ) ) ;
#229 = PERSON_AND_ORGANIZATION ( #106, #232 ) ;
#230 = FACE_OUTER_BOUND ( 'NONE', #179, .T. ) ;
#231 = APPROVAL_ROLE ( '' ) ;
#232 = ORGANIZATION ( 'UNSPECIFIED', 'UNSPECIFIED', '' ) ;
#233 = FACE_OUTER_BOUND ( 'NONE', #134, .T. ) ;
#234 = APPLICATION_CONTEXT ( 'configuration controlled 3d designs of mechanical parts and assemblies' ) ;
#235 = MANIFOLD_SOLID_BREP ( 'Corps-Déplacer/Copier1[1]', #190 ) ;
#236 = CC_DESIGN_PERSON_AND_ORGANIZATION_ASSIGNMENT ( #98, #12, ( #65 ) ) ;
#237 = CARTESIAN_POINT ( 'NONE',  ( 2.618611004132350143E-13, 1.874699728327305315E-32, 75.00000000000000000 ) ) ;
#238 = APPROVAL_DATE_TIME ( #15, #76 ) ;
#239 = ORIENTED_EDGE ( 'NONE', *, *, #128, .F. ) ;
#240 = ORIENTED_EDGE ( 'NONE', *, *, #8, .F. ) ;
#241 = MECHANICAL_CONTEXT ( 'NONE', #103, 'mechanical' ) ;
#242 = EDGE_LOOP ( 'NONE', ( #152 ) ) ;
#243 = CC_DESIGN_PERSON_AND_ORGANIZATION_ASSIGNMENT ( #117, #119, ( #184 ) ) ;
#244 = DIRECTION ( 'NONE',  ( -3.491481338843133355E-15, 1.224646799147353207E-16, -1.000000000000000000 ) ) ;
#245 = PERSON_AND_ORGANIZATION ( #106, #232 ) ;
#246 = DIRECTION ( 'NONE',  ( -3.491481338843133355E-15, 1.224646799147353207E-16, -1.000000000000000000 ) ) ;
#247 = DATE_TIME_ROLE ( 'classification_date' ) ;
#248 = DIRECTION ( 'NONE',  ( -3.491481338843133355E-15, 1.224646799147353207E-16, -1.000000000000000000 ) ) ;
#249 = DIRECTION ( 'NONE',  ( -3.491481338843133355E-15, 1.224646799147353207E-16, -1.000000000000000000 ) ) ;
#250 = CYLINDRICAL_SURFACE ( 'NONE', #182, 1.499999999999999778 ) ;
#251 = LOCAL_TIME ( 14, 42, 32.00000000000000000, #60 ) ;
#252 = CARTESIAN_POINT ( 'NONE',  ( -8.314594987856213161E-32, 1.400000000000000133, -2.381394651993521351E-17 ) ) ;
#253 = ADVANCED_FACE ( 'NONE', ( #230, #80 ), #147, .T. ) ;
#254 = DIRECTION ( 'NONE',  ( 0.000000000000000000, 1.000000000000000000, 0.000000000000000000 ) ) ;
#255 = EDGE_LOOP ( 'NONE', ( #94 ) ) ;
#256 = APPLICATION_PROTOCOL_DEFINITION ( 'international standard', 'config_control_design', 1994, #234 ) ;
#257 = CARTESIAN_POINT ( 'NONE',  ( 5.237222008264700033E-14, -1.836970198721029589E-15, 15.00000000000000000 ) ) ;
#258 = AXIS2_PLACEMENT_3D ( 'NONE', #11, #244, #221 ) ;
#259 = ORIENTED_EDGE ( 'NONE', *, *, #136, .T. ) ;
#260 = CC_DESIGN_APPROVAL ( #70, ( #65 ) ) ;
#261 = APPROVAL_DATE_TIME ( #181, #70 ) ;
#262 = CARTESIAN_POINT ( 'NONE',  ( 2.618611004132350143E-13, -9.184850993605148733E-15, 75.00000000000000000 ) ) ;
#263 = DIRECTION ( 'NONE',  ( 4.275831445896958607E-31, 1.000000000000000000, 1.224646799147353207E-16 ) ) ;
ENDSEC;
END-ISO-10303-21;
