ISO-10303-21;
HEADER;
FILE_DESCRIPTION (( 'STEP AP203' ),
    '1' );
FILE_NAME ('3362.step',
    '2021-10-06T11:26:07',
    ( '' ),
    ( '' ),
    'SwSTEP 2.0',
    'SolidWorks 2019',
    '' );
FILE_SCHEMA (( 'CONFIG_CONTROL_DESIGN' ));
ENDSEC;

DATA;
#1 = CARTESIAN_POINT ( 'NONE',  ( 5.586370142149013368E-14, -1.959434878635765131E-15, 16.00000000000000000 ) ) ;
#2 = APPROVAL_PERSON_ORGANIZATION ( #107, #94, #21 ) ;
#3 = VERTEX_POINT ( 'NONE', #19 ) ;
#4 = DATE_AND_TIME ( #190, #65 ) ;
#5 = CIRCLE ( 'NONE', #111, 0.9749999999999972022 ) ;
#6 = MECHANICAL_CONTEXT ( 'NONE', #35, 'mechanical' ) ;
#7 = CC_DESIGN_PERSON_AND_ORGANIZATION_ASSIGNMENT ( #113, #130, ( #52 ) ) ;
#8 = AXIS2_PLACEMENT_3D ( 'NONE', #85, #48, #99 ) ;
#9 = EDGE_LOOP ( 'NONE', ( #13 ) ) ;
#10 = APPROVAL_ROLE ( '' ) ;
#11 = AXIS2_PLACEMENT_3D ( 'NONE', #29, #50, #60 ) ;
#12 = DIRECTION ( 'NONE',  ( 0.0000000000000000000, 1.000000000000000000, 0.0000000000000000000 ) ) ;
#13 = ORIENTED_EDGE ( 'NONE', *, *, #123, .F. ) ;
#14 = FACE_OUTER_BOUND ( 'NONE', #160, .T. ) ;
#15 = ORIENTED_EDGE ( 'NONE', *, *, #26, .T. ) ;
#16 = MANIFOLD_SOLID_BREP ( 'Corps-Déplacer/Copier1[2]', #170 ) ;
#17 = CIRCLE ( 'NONE', #8, 0.9749999999999954259 ) ;
#18 = FACE_OUTER_BOUND ( 'NONE', #41, .T. ) ;
#19 = CARTESIAN_POINT ( 'NONE',  ( 5.586370142149013368E-14, 0.9749999999999953149, 16.00000000000000000 ) ) ;
#20 = APPROVAL_PERSON_ORGANIZATION ( #200, #138, #10 ) ;
#21 = APPROVAL_ROLE ( '' ) ;
#22 = CC_DESIGN_DATE_AND_TIME_ASSIGNMENT ( #163, #59, ( #28 ) ) ;
#23 = EDGE_LOOP ( 'NONE', ( #181 ) ) ;
#24 = PERSON_AND_ORGANIZATION ( #178, #58 ) ;
#25 = EDGE_LOOP ( 'NONE', ( #42 ) ) ;
#26 = EDGE_CURVE ( 'NONE', #185, #185, #5, .T. ) ;
#27 = DIRECTION ( 'NONE',  ( -3.491481338843133355E-15, 1.224646799147353207E-16, -1.000000000000000000 ) ) ;
#28 = SECURITY_CLASSIFICATION ( '', '', #61 ) ;
#29 = CARTESIAN_POINT ( 'NONE',  ( 0.0000000000000000000, 0.0000000000000000000, 0.0000000000000000000 ) ) ;
#30 = PRODUCT_RELATED_PRODUCT_CATEGORY ( 'detail', '', ( #187 ) ) ;
#31 = DIRECTION ( 'NONE',  ( 0.0000000000000000000, 1.000000000000000000, 0.0000000000000000000 ) ) ;
#32 = DIRECTION ( 'NONE',  ( -3.491481338843133355E-15, 1.224646799147353207E-16, -1.000000000000000000 ) ) ;
#33 = DIRECTION ( 'NONE',  ( -4.275831445896958607E-31, -1.000000000000000000, -1.224646799147353207E-16 ) ) ;
#34 = AXIS2_PLACEMENT_3D ( 'NONE', #165, #27, #91 ) ;
#35 = APPLICATION_CONTEXT ( 'configuration controlled 3d designs of mechanical parts and assemblies' ) ;
#36 =( NAMED_UNIT ( * ) PLANE_ANGLE_UNIT ( ) SI_UNIT ( $, .RADIAN. ) );
#37 = CC_DESIGN_APPROVAL ( #94, ( #52 ) ) ;
#38 =( LENGTH_UNIT ( ) NAMED_UNIT ( * ) SI_UNIT ( .MILLI., .METRE. ) );
#39 = CLOSED_SHELL ( 'NONE', ( #174, #168, #40, #115 ) ) ;
#40 = ADVANCED_FACE ( 'NONE', ( #135, #102 ), #152, .T. ) ;
#41 = EDGE_LOOP ( 'NONE', ( #69 ) ) ;
#42 = ORIENTED_EDGE ( 'NONE', *, *, #43, .T. ) ;
#43 = EDGE_CURVE ( 'NONE', #167, #167, #80, .T. ) ;
#44 = PERSON_AND_ORGANIZATION_ROLE ( 'design_supplier' ) ;
#45 =( GEOMETRIC_REPRESENTATION_CONTEXT ( 3 ) GLOBAL_UNCERTAINTY_ASSIGNED_CONTEXT ( ( #172 ) ) GLOBAL_UNIT_ASSIGNED_CONTEXT ( ( #38, #36, #51 ) ) REPRESENTATION_CONTEXT ( 'NONE', 'WORKASPACE' ) );
#46 = CARTESIAN_POINT ( 'NONE',  ( 1.326762908760390423E-13, -4.653657836759941941E-15, 38.00000000000000000 ) ) ;
#47 = DIRECTION ( 'NONE',  ( -3.491481338843133355E-15, 1.224646799147353207E-16, -1.000000000000000000 ) ) ;
#48 = DIRECTION ( 'NONE',  ( -3.491481338843133355E-15, 1.224646799147353207E-16, -1.000000000000000000 ) ) ;
#49 = CARTESIAN_POINT ( 'NONE',  ( 5.586370142149013368E-14, 0.9749999999999953149, 16.00000000000000000 ) ) ;
#50 = DIRECTION ( 'NONE',  ( -3.491481338843133355E-15, 1.224646799147353207E-16, -1.000000000000000000 ) ) ;
#51 =( NAMED_UNIT ( * ) SI_UNIT ( $, .STERADIAN. ) SOLID_ANGLE_UNIT ( ) );
#52 = PRODUCT_DEFINITION_FORMATION_WITH_SPECIFIED_SOURCE ( 'ANY', '', #187, .NOT_KNOWN. ) ;
#53 = DATE_TIME_ROLE ( 'creation_date' ) ;
#54 = AXIS2_PLACEMENT_3D ( 'NONE', #62, #90, #120 ) ;
#55 = DATE_AND_TIME ( #151, #166 ) ;
#56 = EDGE_LOOP ( 'NONE', ( #15 ) ) ;
#57 = APPROVAL_DATE_TIME ( #55, #94 ) ;
#58 = ORGANIZATION ( 'UNSPECIFIED', 'UNSPECIFIED', '' ) ;
#59 = DATE_TIME_ROLE ( 'classification_date' ) ;
#60 = DIRECTION ( 'NONE',  ( 4.275831445896958607E-31, 1.000000000000000000, 1.224646799147353207E-16 ) ) ;
#61 = SECURITY_CLASSIFICATION_LEVEL ( 'unclassified' ) ;
#62 = CARTESIAN_POINT ( 'NONE',  ( 5.586370142149013368E-14, 7.311328940476506574E-33, 16.00000000000000000 ) ) ;
#63 = DIRECTION ( 'NONE',  ( -3.491481338843133355E-15, 1.224646799147353207E-16, -1.000000000000000000 ) ) ;
#64 = DIRECTION ( 'NONE',  ( 0.0000000000000000000, 1.000000000000000000, 0.0000000000000000000 ) ) ;
#65 = LOCAL_TIME ( 13, 26, 7.000000000000000000, #125 ) ;
#66 = DESIGN_CONTEXT ( 'detailed design', #103, 'design' ) ;
#67 = CALENDAR_DATE ( 2021, 6, 10 ) ;
#68 = EDGE_CURVE ( 'NONE', #136, #136, #97, .T. ) ;
#69 = ORIENTED_EDGE ( 'NONE', *, *, #123, .T. ) ;
#70 = CALENDAR_DATE ( 2021, 6, 10 ) ;
#71 = ORIENTED_EDGE ( 'NONE', *, *, #68, .T. ) ;
#72 = CARTESIAN_POINT ( 'NONE',  ( 1.326762908760390423E-13, 5.811569157814627755E-33, 38.00000000000000000 ) ) ;
#73 = SHAPE_DEFINITION_REPRESENTATION ( #179, #93 ) ;
#74 = FACE_OUTER_BOUND ( 'NONE', #84, .T. ) ;
#75 = DIRECTION ( 'NONE',  ( 4.275831445896958607E-31, 1.000000000000000000, 1.224646799147353454E-16 ) ) ;
#76 = CYLINDRICAL_SURFACE ( 'NONE', #177, 0.9749999999999986455 ) ;
#77 = CARTESIAN_POINT ( 'NONE',  ( 0.0000000000000000000, 0.0000000000000000000, 0.0000000000000000000 ) ) ;
#78 = APPROVAL_ROLE ( '' ) ;
#79 = PRODUCT_DEFINITION ( 'UNKNOWN', '', #52, #66 ) ;
#80 = CIRCLE ( 'NONE', #128, 0.7750000000000000222 ) ;
#81 = COORDINATED_UNIVERSAL_TIME_OFFSET ( 1, 0, .AHEAD. ) ;
#82 = CARTESIAN_POINT ( 'NONE',  ( 1.587401874442638981E-15, 0.9749999999999953149, 0.4546499667011275614 ) ) ;
#83 = AXIS2_PLACEMENT_3D ( 'NONE', #201, #132, #33 ) ;
#84 = EDGE_LOOP ( 'NONE', ( #195 ) ) ;
#85 = CARTESIAN_POINT ( 'NONE',  ( 1.587401874442638587E-15, -5.567856264529863797E-17, 0.4546499667011274504 ) ) ;
#86 = APPROVAL_PERSON_ORGANIZATION ( #142, #145, #78 ) ;
#87 = PLANE ( 'NONE',  #54 ) ;
#88 = CARTESIAN_POINT ( 'NONE',  ( 1.326762908760390423E-13, -4.653657836759941941E-15, 38.00000000000000000 ) ) ;
#89 = CC_DESIGN_DATE_AND_TIME_ASSIGNMENT ( #4, #53, ( #79 ) ) ;
#90 = DIRECTION ( 'NONE',  ( 3.491481338843133355E-15, -1.224646799147353207E-16, 1.000000000000000000 ) ) ;
#91 = DIRECTION ( 'NONE',  ( 0.0000000000000000000, 1.000000000000000000, 0.0000000000000000000 ) ) ;
#92 = PERSON_AND_ORGANIZATION_ROLE ( 'creator' ) ;
#93 = ADVANCED_BREP_SHAPE_REPRESENTATION ( '3362', ( #146, #16, #143 ), #45 ) ;
#94 = APPROVAL ( #175, 'UNSPECIFIED' ) ;
#95 = DIRECTION ( 'NONE',  ( 0.0000000000000000000, 0.0000000000000000000, 1.000000000000000000 ) ) ;
#96 = ORIENTED_EDGE ( 'NONE', *, *, #68, .F. ) ;
#97 = CIRCLE ( 'NONE', #155, 0.9749999999999999778 ) ;
#98 = FACE_OUTER_BOUND ( 'NONE', #9, .T. ) ;
#99 = DIRECTION ( 'NONE',  ( 3.950625526948194478E-31, 1.000000000000000000, 1.112002228190266129E-16 ) ) ;
#100 = FACE_OUTER_BOUND ( 'NONE', #144, .T. ) ;
#101 = DIRECTION ( 'NONE',  ( 3.491481338843133355E-15, -1.224646799147353207E-16, 1.000000000000000000 ) ) ;
#102 = FACE_BOUND ( 'NONE', #25, .T. ) ;
#103 = APPLICATION_CONTEXT ( 'configuration controlled 3d designs of mechanical parts and assemblies' ) ;
#104 = LOCAL_TIME ( 13, 26, 7.000000000000000000, #139 ) ;
#105 = APPLICATION_PROTOCOL_DEFINITION ( 'international standard', 'config_control_design', 1994, #103 ) ;
#106 = EDGE_CURVE ( 'NONE', #188, #188, #17, .T. ) ;
#107 = PERSON_AND_ORGANIZATION ( #178, #58 ) ;
#108 = CONICAL_SURFACE ( 'NONE', #119, 0.9749999999999954259, 1.134464013796309123 ) ;
#109 = CARTESIAN_POINT ( 'NONE',  ( 0.0000000000000000000, 0.0000000000000000000, 0.0000000000000000000 ) ) ;
#110 = ADVANCED_FACE ( 'NONE', ( #98 ), #184, .T. ) ;
#111 = AXIS2_PLACEMENT_3D ( 'NONE', #1, #148, #31 ) ;
#112 = ORIENTED_EDGE ( 'NONE', *, *, #26, .F. ) ;
#113 = PERSON_AND_ORGANIZATION ( #178, #58 ) ;
#114 = ORIENTED_EDGE ( 'NONE', *, *, #106, .F. ) ;
#115 = ADVANCED_FACE ( 'NONE', ( #74 ), #121, .F. ) ;
#116 = COORDINATED_UNIVERSAL_TIME_OFFSET ( 1, 0, .AHEAD. ) ;
#117 = DATE_AND_TIME ( #67, #140 ) ;
#118 = DIRECTION ( 'NONE',  ( -3.950625526948194478E-31, -1.000000000000000000, -1.112002228190266129E-16 ) ) ;
#119 = AXIS2_PLACEMENT_3D ( 'NONE', #122, #101, #118 ) ;
#120 = DIRECTION ( 'NONE',  ( -4.275831445896958607E-31, -1.000000000000000000, -1.224646799147353207E-16 ) ) ;
#121 = PLANE ( 'NONE',  #199 ) ;
#122 = CARTESIAN_POINT ( 'NONE',  ( 1.587401874442638587E-15, -5.567856264529863797E-17, 0.4546499667011274504 ) ) ;
#123 = EDGE_CURVE ( 'NONE', #3, #3, #161, .T. ) ;
#124 = LOCAL_TIME ( 13, 26, 7.000000000000000000, #198 ) ;
#125 = COORDINATED_UNIVERSAL_TIME_OFFSET ( 1, 0, .AHEAD. ) ;
#126 = DATE_AND_TIME ( #157, #104 ) ;
#127 = ADVANCED_FACE ( 'NONE', ( #153, #18 ), #147, .T. ) ;
#128 = AXIS2_PLACEMENT_3D ( 'NONE', #88, #162, #64 ) ;
#129 = CC_DESIGN_APPROVAL ( #145, ( #79 ) ) ;
#130 = PERSON_AND_ORGANIZATION_ROLE ( 'creator' ) ;
#131 = CC_DESIGN_PERSON_AND_ORGANIZATION_ASSIGNMENT ( #189, #193, ( #187 ) ) ;
#132 = DIRECTION ( 'NONE',  ( 3.491481338843133355E-15, -1.224646799147353207E-16, 1.000000000000000000 ) ) ;
#133 = PERSON_AND_ORGANIZATION ( #178, #58 ) ;
#134 = DIRECTION ( 'NONE',  ( 4.275831445896958607E-31, 1.000000000000000000, 1.224646799147353207E-16 ) ) ;
#135 = FACE_OUTER_BOUND ( 'NONE', #197, .T. ) ;
#136 = VERTEX_POINT ( 'NONE', #203 ) ;
#137 = DIRECTION ( 'NONE',  ( 0.0000000000000000000, 1.000000000000000000, 0.0000000000000000000 ) ) ;
#138 = APPROVAL ( #180, 'UNSPECIFIED' ) ;
#139 = COORDINATED_UNIVERSAL_TIME_OFFSET ( 1, 0, .AHEAD. ) ;
#140 = LOCAL_TIME ( 13, 26, 7.000000000000000000, #116 ) ;
#141 = APPLICATION_PROTOCOL_DEFINITION ( 'international standard', 'config_control_design', 1994, #35 ) ;
#142 = PERSON_AND_ORGANIZATION ( #178, #58 ) ;
#143 = AXIS2_PLACEMENT_3D ( 'NONE', #109, #95, #191 ) ;
#144 = EDGE_LOOP ( 'NONE', ( #112 ) ) ;
#145 = APPROVAL ( #156, 'UNSPECIFIED' ) ;
#146 = MANIFOLD_SOLID_BREP ( 'Corps-Déplacer/Copier1[1]', #39 ) ;
#147 = CYLINDRICAL_SURFACE ( 'NONE', #11, 0.9749999999999963141 ) ;
#148 = DIRECTION ( 'NONE',  ( -3.491481338843133355E-15, 1.224646799147353207E-16, -1.000000000000000000 ) ) ;
#149 = DIRECTION ( 'NONE',  ( -3.491481338843133355E-15, 1.224646799147353207E-16, -1.000000000000000000 ) ) ;
#150 = CARTESIAN_POINT ( 'NONE',  ( 1.326762908760390423E-13, 0.7749999999999953593, 38.00000000000000000 ) ) ;
#151 = CALENDAR_DATE ( 2021, 6, 10 ) ;
#152 = CONICAL_SURFACE ( 'NONE', #192, 0.7750000000000000222, 0.7853981633974512766 ) ;
#153 = FACE_OUTER_BOUND ( 'NONE', #158, .T. ) ;
#154 = APPROVAL_DATE_TIME ( #126, #145 ) ;
#155 = AXIS2_PLACEMENT_3D ( 'NONE', #169, #32, #12 ) ;
#156 = APPROVAL_STATUS ( 'not_yet_approved' ) ;
#157 = CALENDAR_DATE ( 2021, 6, 10 ) ;
#158 = EDGE_LOOP ( 'NONE', ( #114 ) ) ;
#159 = ADVANCED_FACE ( 'NONE', ( #183 ), #108, .T. ) ;
#160 = EDGE_LOOP ( 'NONE', ( #71 ) ) ;
#161 = CIRCLE ( 'NONE', #34, 0.9749999999999972022 ) ;
#162 = DIRECTION ( 'NONE',  ( -3.491481338843133355E-15, 1.224646799147353207E-16, -1.000000000000000000 ) ) ;
#163 = DATE_AND_TIME ( #70, #124 ) ;
#164 = CC_DESIGN_PERSON_AND_ORGANIZATION_ASSIGNMENT ( #24, #196, ( #28 ) ) ;
#165 = CARTESIAN_POINT ( 'NONE',  ( 5.586370142149013368E-14, -1.959434878635765131E-15, 16.00000000000000000 ) ) ;
#166 = LOCAL_TIME ( 13, 26, 7.000000000000000000, #81 ) ;
#167 = VERTEX_POINT ( 'NONE', #150 ) ;
#168 = ADVANCED_FACE ( 'NONE', ( #100, #14 ), #76, .T. ) ;
#169 = CARTESIAN_POINT ( 'NONE',  ( 1.319779946082704535E-13, -4.629164900776995227E-15, 37.79999999999999716 ) ) ;
#170 = CLOSED_SHELL ( 'NONE', ( #159, #127, #110 ) ) ;
#171 = CC_DESIGN_SECURITY_CLASSIFICATION ( #28, ( #52 ) ) ;
#172 = UNCERTAINTY_MEASURE_WITH_UNIT (LENGTH_MEASURE( 1.000000000000000082E-05 ), #38, 'distance_accuracy_value', 'NONE');
#173 = PERSON_AND_ORGANIZATION ( #178, #58 ) ;
#174 = ADVANCED_FACE ( 'NONE', ( #202 ), #87, .F. ) ;
#175 = APPROVAL_STATUS ( 'not_yet_approved' ) ;
#176 = CC_DESIGN_PERSON_AND_ORGANIZATION_ASSIGNMENT ( #173, #92, ( #79 ) ) ;
#177 = AXIS2_PLACEMENT_3D ( 'NONE', #77, #47, #75 ) ;
#178 = PERSON ( 'UNSPECIFIED', 'UNSPECIFIED', 'UNSPECIFIED', ('UNSPECIFIED'), ('UNSPECIFIED'), ('UNSPECIFIED') ) ;
#179 = PRODUCT_DEFINITION_SHAPE ( 'NONE', 'NONE',  #79 ) ;
#180 = APPROVAL_STATUS ( 'not_yet_approved' ) ;
#181 = ORIENTED_EDGE ( 'NONE', *, *, #106, .T. ) ;
#182 = APPROVAL_DATE_TIME ( #117, #138 ) ;
#183 = FACE_OUTER_BOUND ( 'NONE', #23, .T. ) ;
#184 = PLANE ( 'NONE',  #83 ) ;
#185 = VERTEX_POINT ( 'NONE', #49 ) ;
#186 = CC_DESIGN_PERSON_AND_ORGANIZATION_ASSIGNMENT ( #133, #44, ( #52 ) ) ;
#187 = PRODUCT ( '3362', '3362', '', ( #6 ) ) ;
#188 = VERTEX_POINT ( 'NONE', #82 ) ;
#189 = PERSON_AND_ORGANIZATION ( #178, #58 ) ;
#190 = CALENDAR_DATE ( 2021, 6, 10 ) ;
#191 = DIRECTION ( 'NONE',  ( 1.000000000000000000, 0.0000000000000000000, 0.0000000000000000000 ) ) ;
#192 = AXIS2_PLACEMENT_3D ( 'NONE', #46, #63, #137 ) ;
#193 = PERSON_AND_ORGANIZATION_ROLE ( 'design_owner' ) ;
#194 = CC_DESIGN_APPROVAL ( #138, ( #28 ) ) ;
#195 = ORIENTED_EDGE ( 'NONE', *, *, #43, .F. ) ;
#196 = PERSON_AND_ORGANIZATION_ROLE ( 'classification_officer' ) ;
#197 = EDGE_LOOP ( 'NONE', ( #96 ) ) ;
#198 = COORDINATED_UNIVERSAL_TIME_OFFSET ( 1, 0, .AHEAD. ) ;
#199 = AXIS2_PLACEMENT_3D ( 'NONE', #72, #149, #134 ) ;
#200 = PERSON_AND_ORGANIZATION ( #178, #58 ) ;
#201 = CARTESIAN_POINT ( 'NONE',  ( 5.586370142149013368E-14, 7.311328940476506574E-33, 16.00000000000000000 ) ) ;
#202 = FACE_OUTER_BOUND ( 'NONE', #56, .T. ) ;
#203 = CARTESIAN_POINT ( 'NONE',  ( 1.319779946082704535E-13, 0.9749999999999953149, 37.79999999999999716 ) ) ;
ENDSEC;
END-ISO-10303-21;
