ISO-10303-21;
HEADER;
FILE_DESCRIPTION (( 'STEP AP203' ),
    '1' );
FILE_NAME ('3361.step',
    '2021-10-06T11:26:06',
    ( '' ),
    ( '' ),
    'SwSTEP 2.0',
    'SolidWorks 2019',
    '' );
FILE_SCHEMA (( 'CONFIG_CONTROL_DESIGN' ));
ENDSEC;

DATA;
#1 = ORIENTED_EDGE ( 'NONE', *, *, #86, .F. ) ;
#2 = ORIENTED_EDGE ( 'NONE', *, *, #48, .T. ) ;
#3 = CIRCLE ( 'NONE', #126, 0.8749999999999953371 ) ;
#4 = PRODUCT_DEFINITION ( 'UNKNOWN', '', #29, #8 ) ;
#5 = EDGE_LOOP ( 'NONE', ( #37 ) ) ;
#6 = MECHANICAL_CONTEXT ( 'NONE', #65, 'mechanical' ) ;
#7 = ORGANIZATION ( 'UNSPECIFIED', 'UNSPECIFIED', '' ) ;
#8 = DESIGN_CONTEXT ( 'detailed design', #69, 'design' ) ;
#9 = DIRECTION ( 'NONE',  ( 0.0000000000000000000, 0.0000000000000000000, 1.000000000000000000 ) ) ;
#10 = CARTESIAN_POINT ( 'NONE',  ( 5.586370142149013368E-14, 0.8749999999999953371, 16.00000000000000000 ) ) ;
#11 = CARTESIAN_POINT ( 'NONE',  ( 0.0000000000000000000, 0.0000000000000000000, 0.0000000000000000000 ) ) ;
#12 = AXIS2_PLACEMENT_3D ( 'NONE', #92, #56, #179 ) ;
#13 = AXIS2_PLACEMENT_3D ( 'NONE', #153, #137, #148 ) ;
#14 = PERSON_AND_ORGANIZATION ( #115, #7 ) ;
#15 = EDGE_CURVE ( 'NONE', #96, #96, #3, .T. ) ;
#16 = COORDINATED_UNIVERSAL_TIME_OFFSET ( 1, 0, .AHEAD. ) ;
#17 = LOCAL_TIME ( 13, 26, 6.000000000000000000, #44 ) ;
#18 = CALENDAR_DATE ( 2021, 6, 10 ) ;
#19 = PLANE ( 'NONE',  #131 ) ;
#20 = AXIS2_PLACEMENT_3D ( 'NONE', #105, #163, #24 ) ;
#21 = EDGE_LOOP ( 'NONE', ( #190 ) ) ;
#22 = APPROVAL ( #67, 'UNSPECIFIED' ) ;
#23 = DIRECTION ( 'NONE',  ( -3.491481338843133355E-15, 1.224646799147353207E-16, -1.000000000000000000 ) ) ;
#24 = DIRECTION ( 'NONE',  ( -4.402125587170848579E-31, -1.000000000000000000, -1.239088197126297473E-16 ) ) ;
#25 = AXIS2_PLACEMENT_3D ( 'NONE', #11, #9, #182 ) ;
#26 = PERSON_AND_ORGANIZATION ( #115, #7 ) ;
#27 = VERTEX_POINT ( 'NONE', #168 ) ;
#28 = EDGE_CURVE ( 'NONE', #27, #27, #165, .T. ) ;
#29 = PRODUCT_DEFINITION_FORMATION_WITH_SPECIFIED_SOURCE ( 'ANY', '', #72, .NOT_KNOWN. ) ;
#30 = DIRECTION ( 'NONE',  ( -3.491481338843133355E-15, 1.224646799147353207E-16, -1.000000000000000000 ) ) ;
#31 = CYLINDRICAL_SURFACE ( 'NONE', #147, 0.8749999999999963363 ) ;
#32 = PERSON_AND_ORGANIZATION ( #115, #7 ) ;
#33 = PERSON_AND_ORGANIZATION ( #115, #7 ) ;
#34 = CC_DESIGN_APPROVAL ( #51, ( #103 ) ) ;
#35 = SHAPE_DEFINITION_REPRESENTATION ( #119, #192 ) ;
#36 = MANIFOLD_SOLID_BREP ( 'Corps-Déplacer/Copier1[2]', #102 ) ;
#37 = ORIENTED_EDGE ( 'NONE', *, *, #176, .T. ) ;
#38 = CONICAL_SURFACE ( 'NONE', #201, 0.6750000000000000444, 0.7853981633974512766 ) ;
#39 = CARTESIAN_POINT ( 'NONE',  ( 1.326762908760390423E-13, -4.653657836759941941E-15, 38.00000000000000000 ) ) ;
#40 = FACE_OUTER_BOUND ( 'NONE', #139, .T. ) ;
#41 = ADVANCED_FACE ( 'NONE', ( #122 ), #178, .F. ) ;
#42 = ORIENTED_EDGE ( 'NONE', *, *, #15, .T. ) ;
#43 = DIRECTION ( 'NONE',  ( 0.0000000000000000000, 1.000000000000000000, 0.0000000000000000000 ) ) ;
#44 = COORDINATED_UNIVERSAL_TIME_OFFSET ( 1, 0, .AHEAD. ) ;
#45 = FACE_OUTER_BOUND ( 'NONE', #189, .T. ) ;
#46 = PERSON_AND_ORGANIZATION_ROLE ( 'design_owner' ) ;
#47 = DIRECTION ( 'NONE',  ( -4.275831445896958607E-31, -1.000000000000000000, -1.224646799147353207E-16 ) ) ;
#48 = EDGE_CURVE ( 'NONE', #196, #196, #150, .T. ) ;
#49 = DATE_TIME_ROLE ( 'classification_date' ) ;
#50 = CONICAL_SURFACE ( 'NONE', #20, 0.8749999999999953371, 1.134464013796309123 ) ;
#51 = APPROVAL ( #144, 'UNSPECIFIED' ) ;
#52 = PERSON_AND_ORGANIZATION_ROLE ( 'design_supplier' ) ;
#53 = CLOSED_SHELL ( 'NONE', ( #41, #81, #149, #62 ) ) ;
#54 = APPROVAL ( #193, 'UNSPECIFIED' ) ;
#55 = PLANE ( 'NONE',  #60 ) ;
#56 = DIRECTION ( 'NONE',  ( 3.491481338843133355E-15, -1.224646799147353207E-16, 1.000000000000000000 ) ) ;
#57 = EDGE_LOOP ( 'NONE', ( #104 ) ) ;
#58 = EDGE_LOOP ( 'NONE', ( #164 ) ) ;
#59 = DIRECTION ( 'NONE',  ( 4.275831445896958607E-31, 1.000000000000000000, 1.224646799147353454E-16 ) ) ;
#60 = AXIS2_PLACEMENT_3D ( 'NONE', #116, #175, #90 ) ;
#61 = FACE_OUTER_BOUND ( 'NONE', #58, .T. ) ;
#62 = ADVANCED_FACE ( 'NONE', ( #140 ), #55, .F. ) ;
#63 = DIRECTION ( 'NONE',  ( 4.275831445896958607E-31, 1.000000000000000000, 1.224646799147353207E-16 ) ) ;
#64 = CARTESIAN_POINT ( 'NONE',  ( 1.424591425781854520E-15, 0.8749999999999953371, 0.4080192008856270425 ) ) ;
#65 = APPLICATION_CONTEXT ( 'configuration controlled 3d designs of mechanical parts and assemblies' ) ;
#66 = VERTEX_POINT ( 'NONE', #169 ) ;
#67 = APPROVAL_STATUS ( 'not_yet_approved' ) ;
#68 = DATE_AND_TIME ( #114, #17 ) ;
#69 = APPLICATION_CONTEXT ( 'configuration controlled 3d designs of mechanical parts and assemblies' ) ;
#70 = ORIENTED_EDGE ( 'NONE', *, *, #86, .T. ) ;
#71 = ORIENTED_EDGE ( 'NONE', *, *, #15, .F. ) ;
#72 = PRODUCT ( '3361', '3361', '', ( #6 ) ) ;
#73 = CARTESIAN_POINT ( 'NONE',  ( 1.424591425781854126E-15, -4.996794083552439072E-17, 0.4080192008856269315 ) ) ;
#74 = APPROVAL_PERSON_ORGANIZATION ( #32, #22, #112 ) ;
#75 = EDGE_LOOP ( 'NONE', ( #151 ) ) ;
#76 = EDGE_LOOP ( 'NONE', ( #70 ) ) ;
#77 = PERSON_AND_ORGANIZATION ( #115, #7 ) ;
#78 = CC_DESIGN_DATE_AND_TIME_ASSIGNMENT ( #133, #49, ( #103 ) ) ;
#79 = DIRECTION ( 'NONE',  ( 0.0000000000000000000, 1.000000000000000000, 0.0000000000000000000 ) ) ;
#80 = LOCAL_TIME ( 13, 26, 6.000000000000000000, #16 ) ;
#81 = ADVANCED_FACE ( 'NONE', ( #138, #191 ), #159, .T. ) ;
#82 = FACE_BOUND ( 'NONE', #91, .T. ) ;
#83 = CARTESIAN_POINT ( 'NONE',  ( 5.586370142149013368E-14, -1.959434878635765131E-15, 16.00000000000000000 ) ) ;
#84 = SECURITY_CLASSIFICATION_LEVEL ( 'unclassified' ) ;
#85 = APPROVAL_ROLE ( '' ) ;
#86 = EDGE_CURVE ( 'NONE', #127, #127, #88, .T. ) ;
#87 = CARTESIAN_POINT ( 'NONE',  ( 5.586370142149013368E-14, 6.561449049145577770E-33, 16.00000000000000000 ) ) ;
#88 = CIRCLE ( 'NONE', #111, 0.8749999999999973355 ) ;
#89 = CARTESIAN_POINT ( 'NONE',  ( 0.0000000000000000000, 0.0000000000000000000, 0.0000000000000000000 ) ) ;
#90 = DIRECTION ( 'NONE',  ( 4.275831445896958607E-31, 1.000000000000000000, 1.224646799147353207E-16 ) ) ;
#91 = EDGE_LOOP ( 'NONE', ( #2 ) ) ;
#92 = CARTESIAN_POINT ( 'NONE',  ( 5.586370142149013368E-14, 6.561449049145577770E-33, 16.00000000000000000 ) ) ;
#93 = CC_DESIGN_PERSON_AND_ORGANIZATION_ASSIGNMENT ( #26, #46, ( #72 ) ) ;
#94 =( NAMED_UNIT ( * ) SI_UNIT ( $, .STERADIAN. ) SOLID_ANGLE_UNIT ( ) );
#95 = DIRECTION ( 'NONE',  ( 3.491481338843133355E-15, -1.224646799147353207E-16, 1.000000000000000000 ) ) ;
#96 = VERTEX_POINT ( 'NONE', #64 ) ;
#97 = COORDINATED_UNIVERSAL_TIME_OFFSET ( 1, 0, .AHEAD. ) ;
#98 = APPROVAL_PERSON_ORGANIZATION ( #156, #51, #85 ) ;
#99 = APPROVAL_DATE_TIME ( #185, #22 ) ;
#100 = ADVANCED_FACE ( 'NONE', ( #40 ), #50, .T. ) ;
#101 = COORDINATED_UNIVERSAL_TIME_OFFSET ( 1, 0, .AHEAD. ) ;
#102 = CLOSED_SHELL ( 'NONE', ( #100, #157, #129 ) ) ;
#103 = SECURITY_CLASSIFICATION ( '', '', #84 ) ;
#104 = ORIENTED_EDGE ( 'NONE', *, *, #28, .T. ) ;
#105 = CARTESIAN_POINT ( 'NONE',  ( 1.424591425781854126E-15, -4.996794083552439072E-17, 0.4080192008856269315 ) ) ;
#106 =( NAMED_UNIT ( * ) PLANE_ANGLE_UNIT ( ) SI_UNIT ( $, .RADIAN. ) );
#107 =( LENGTH_UNIT ( ) NAMED_UNIT ( * ) SI_UNIT ( .MILLI., .METRE. ) );
#108 = FACE_OUTER_BOUND ( 'NONE', #76, .T. ) ;
#109 = DATE_TIME_ROLE ( 'creation_date' ) ;
#110 = PERSON_AND_ORGANIZATION_ROLE ( 'classification_officer' ) ;
#111 = AXIS2_PLACEMENT_3D ( 'NONE', #123, #121, #43 ) ;
#112 = APPROVAL_ROLE ( '' ) ;
#113 = CALENDAR_DATE ( 2021, 6, 10 ) ;
#114 = CALENDAR_DATE ( 2021, 6, 10 ) ;
#115 = PERSON ( 'UNSPECIFIED', 'UNSPECIFIED', 'UNSPECIFIED', ('UNSPECIFIED'), ('UNSPECIFIED'), ('UNSPECIFIED') ) ;
#116 = CARTESIAN_POINT ( 'NONE',  ( 1.326762908760390423E-13, 5.061689266483700319E-33, 38.00000000000000000 ) ) ;
#117 = PRODUCT_RELATED_PRODUCT_CATEGORY ( 'detail', '', ( #72 ) ) ;
#118 = DIRECTION ( 'NONE',  ( 4.402125587170848579E-31, 1.000000000000000000, 1.239088197126297473E-16 ) ) ;
#119 = PRODUCT_DEFINITION_SHAPE ( 'NONE', 'NONE',  #4 ) ;
#120 = LOCAL_TIME ( 13, 26, 6.000000000000000000, #130 ) ;
#121 = DIRECTION ( 'NONE',  ( -3.491481338843133355E-15, 1.224646799147353207E-16, -1.000000000000000000 ) ) ;
#122 = FACE_OUTER_BOUND ( 'NONE', #5, .T. ) ;
#123 = CARTESIAN_POINT ( 'NONE',  ( 5.586370142149013368E-14, -1.959434878635765131E-15, 16.00000000000000000 ) ) ;
#124 = DIRECTION ( 'NONE',  ( 0.0000000000000000000, 1.000000000000000000, 0.0000000000000000000 ) ) ;
#125 = CC_DESIGN_PERSON_AND_ORGANIZATION_ASSIGNMENT ( #203, #110, ( #103 ) ) ;
#126 = AXIS2_PLACEMENT_3D ( 'NONE', #73, #161, #118 ) ;
#127 = VERTEX_POINT ( 'NONE', #10 ) ;
#128 = CC_DESIGN_APPROVAL ( #54, ( #4 ) ) ;
#129 = ADVANCED_FACE ( 'NONE', ( #152 ), #19, .T. ) ;
#130 = COORDINATED_UNIVERSAL_TIME_OFFSET ( 1, 0, .AHEAD. ) ;
#131 = AXIS2_PLACEMENT_3D ( 'NONE', #87, #95, #47 ) ;
#132 = CALENDAR_DATE ( 2021, 6, 10 ) ;
#133 = DATE_AND_TIME ( #132, #170 ) ;
#134 = AXIS2_PLACEMENT_3D ( 'NONE', #39, #177, #136 ) ;
#135 = CC_DESIGN_SECURITY_CLASSIFICATION ( #103, ( #29 ) ) ;
#136 = DIRECTION ( 'NONE',  ( 0.0000000000000000000, 1.000000000000000000, 0.0000000000000000000 ) ) ;
#137 = DIRECTION ( 'NONE',  ( -3.491481338843133355E-15, 1.224646799147353207E-16, -1.000000000000000000 ) ) ;
#138 = FACE_OUTER_BOUND ( 'NONE', #21, .T. ) ;
#139 = EDGE_LOOP ( 'NONE', ( #42 ) ) ;
#140 = FACE_OUTER_BOUND ( 'NONE', #75, .T. ) ;
#141 = DIRECTION ( 'NONE',  ( -3.491481338843133355E-15, 1.224646799147353207E-16, -1.000000000000000000 ) ) ;
#142 = CARTESIAN_POINT ( 'NONE',  ( 1.326762908760390423E-13, -4.653657836759941941E-15, 38.00000000000000000 ) ) ;
#143 = DIRECTION ( 'NONE',  ( -3.491481338843133355E-15, 1.224646799147353207E-16, -1.000000000000000000 ) ) ;
#144 = APPROVAL_STATUS ( 'not_yet_approved' ) ;
#145 = CALENDAR_DATE ( 2021, 6, 10 ) ;
#146 = CC_DESIGN_DATE_AND_TIME_ASSIGNMENT ( #174, #109, ( #4 ) ) ;
#147 = AXIS2_PLACEMENT_3D ( 'NONE', #197, #141, #63 ) ;
#148 = DIRECTION ( 'NONE',  ( 0.0000000000000000000, 1.000000000000000000, 0.0000000000000000000 ) ) ;
#149 = ADVANCED_FACE ( 'NONE', ( #61, #82 ), #38, .T. ) ;
#150 = CIRCLE ( 'NONE', #134, 0.6750000000000000444 ) ;
#151 = ORIENTED_EDGE ( 'NONE', *, *, #48, .F. ) ;
#152 = FACE_OUTER_BOUND ( 'NONE', #188, .T. ) ;
#153 = CARTESIAN_POINT ( 'NONE',  ( 1.319779946082704535E-13, -4.629164900776995227E-15, 37.79999999999999716 ) ) ;
#154 = APPLICATION_PROTOCOL_DEFINITION ( 'international standard', 'config_control_design', 1994, #69 ) ;
#155 = CC_DESIGN_APPROVAL ( #22, ( #29 ) ) ;
#156 = PERSON_AND_ORGANIZATION ( #115, #7 ) ;
#157 = ADVANCED_FACE ( 'NONE', ( #45, #108 ), #31, .T. ) ;
#158 = PERSON_AND_ORGANIZATION_ROLE ( 'creator' ) ;
#159 = CYLINDRICAL_SURFACE ( 'NONE', #194, 0.8749999999999985567 ) ;
#160 = CIRCLE ( 'NONE', #172, 0.8749999999999973355 ) ;
#161 = DIRECTION ( 'NONE',  ( -3.491481338843133355E-15, 1.224646799147353207E-16, -1.000000000000000000 ) ) ;
#162 = UNCERTAINTY_MEASURE_WITH_UNIT (LENGTH_MEASURE( 1.000000000000000082E-05 ), #107, 'distance_accuracy_value', 'NONE');
#163 = DIRECTION ( 'NONE',  ( 3.491481338843133355E-15, -1.224646799147353207E-16, 1.000000000000000000 ) ) ;
#164 = ORIENTED_EDGE ( 'NONE', *, *, #28, .F. ) ;
#165 = CIRCLE ( 'NONE', #13, 0.8750000000000000000 ) ;
#166 = LOCAL_TIME ( 13, 26, 6.000000000000000000, #97 ) ;
#167 = CC_DESIGN_PERSON_AND_ORGANIZATION_ASSIGNMENT ( #14, #52, ( #29 ) ) ;
#168 = CARTESIAN_POINT ( 'NONE',  ( 1.319779946082704535E-13, 0.8749999999999953371, 37.79999999999999716 ) ) ;
#169 = CARTESIAN_POINT ( 'NONE',  ( 5.586370142149013368E-14, 0.8749999999999953371, 16.00000000000000000 ) ) ;
#170 = LOCAL_TIME ( 13, 26, 6.000000000000000000, #101 ) ;
#171 = MANIFOLD_SOLID_BREP ( 'Corps-Déplacer/Copier1[1]', #53 ) ;
#172 = AXIS2_PLACEMENT_3D ( 'NONE', #83, #30, #79 ) ;
#173 = APPROVAL_DATE_TIME ( #68, #54 ) ;
#174 = DATE_AND_TIME ( #113, #120 ) ;
#175 = DIRECTION ( 'NONE',  ( -3.491481338843133355E-15, 1.224646799147353207E-16, -1.000000000000000000 ) ) ;
#176 = EDGE_CURVE ( 'NONE', #66, #66, #160, .T. ) ;
#177 = DIRECTION ( 'NONE',  ( -3.491481338843133355E-15, 1.224646799147353207E-16, -1.000000000000000000 ) ) ;
#178 = PLANE ( 'NONE',  #12 ) ;
#179 = DIRECTION ( 'NONE',  ( -4.275831445896958607E-31, -1.000000000000000000, -1.224646799147353207E-16 ) ) ;
#180 = CC_DESIGN_PERSON_AND_ORGANIZATION_ASSIGNMENT ( #183, #158, ( #4 ) ) ;
#181 = APPROVAL_ROLE ( '' ) ;
#182 = DIRECTION ( 'NONE',  ( 1.000000000000000000, 0.0000000000000000000, 0.0000000000000000000 ) ) ;
#183 = PERSON_AND_ORGANIZATION ( #115, #7 ) ;
#184 = PERSON_AND_ORGANIZATION_ROLE ( 'creator' ) ;
#185 = DATE_AND_TIME ( #18, #80 ) ;
#186 = APPROVAL_DATE_TIME ( #200, #51 ) ;
#187 =( GEOMETRIC_REPRESENTATION_CONTEXT ( 3 ) GLOBAL_UNCERTAINTY_ASSIGNED_CONTEXT ( ( #162 ) ) GLOBAL_UNIT_ASSIGNED_CONTEXT ( ( #107, #106, #94 ) ) REPRESENTATION_CONTEXT ( 'NONE', 'WORKASPACE' ) );
#188 = EDGE_LOOP ( 'NONE', ( #1 ) ) ;
#189 = EDGE_LOOP ( 'NONE', ( #71 ) ) ;
#190 = ORIENTED_EDGE ( 'NONE', *, *, #176, .F. ) ;
#191 = FACE_OUTER_BOUND ( 'NONE', #57, .T. ) ;
#192 = ADVANCED_BREP_SHAPE_REPRESENTATION ( '3361', ( #171, #36, #25 ), #187 ) ;
#193 = APPROVAL_STATUS ( 'not_yet_approved' ) ;
#194 = AXIS2_PLACEMENT_3D ( 'NONE', #89, #23, #59 ) ;
#195 = CARTESIAN_POINT ( 'NONE',  ( 1.326762908760390423E-13, 0.6749999999999953815, 38.00000000000000000 ) ) ;
#196 = VERTEX_POINT ( 'NONE', #195 ) ;
#197 = CARTESIAN_POINT ( 'NONE',  ( 0.0000000000000000000, 0.0000000000000000000, 0.0000000000000000000 ) ) ;
#198 = APPROVAL_PERSON_ORGANIZATION ( #77, #54, #181 ) ;
#199 = APPLICATION_PROTOCOL_DEFINITION ( 'international standard', 'config_control_design', 1994, #65 ) ;
#200 = DATE_AND_TIME ( #145, #166 ) ;
#201 = AXIS2_PLACEMENT_3D ( 'NONE', #142, #143, #124 ) ;
#202 = CC_DESIGN_PERSON_AND_ORGANIZATION_ASSIGNMENT ( #33, #184, ( #29 ) ) ;
#203 = PERSON_AND_ORGANIZATION ( #115, #7 ) ;
ENDSEC;
END-ISO-10303-21;
