ISO-10303-21;
HEADER;
FILE_DESCRIPTION (( 'STEP AP203' ),
    '1' );
FILE_NAME ('3360.step',
    '2021-10-06T11:26:04',
    ( '' ),
    ( '' ),
    'SwSTEP 2.0',
    'SolidWorks 2019',
    '' );
FILE_SCHEMA (( 'CONFIG_CONTROL_DESIGN' ));
ENDSEC;

DATA;
#1 = ADVANCED_FACE ( 'NONE', ( #10, #106 ), #104, .T. ) ;
#2 = LOCAL_TIME ( 13, 26, 4.000000000000000000, #58 ) ;
#3 = AXIS2_PLACEMENT_3D ( 'NONE', #196, #60, #143 ) ;
#4 = CARTESIAN_POINT ( 'NONE',  ( 1.326762908760390423E-13, 4.686749320818235233E-33, 38.00000000000000000 ) ) ;
#5 = CC_DESIGN_PERSON_AND_ORGANIZATION_ASSIGNMENT ( #155, #26, ( #147 ) ) ;
#6 = PERSON_AND_ORGANIZATION ( #80, #83 ) ;
#7 = CALENDAR_DATE ( 2021, 6, 10 ) ;
#8 = CARTESIAN_POINT ( 'NONE',  ( 5.586370142149013368E-14, 6.186509103480113368E-33, 16.00000000000000000 ) ) ;
#9 = DATE_AND_TIME ( #7, #2 ) ;
#10 = FACE_OUTER_BOUND ( 'NONE', #184, .T. ) ;
#11 = PERSON_AND_ORGANIZATION ( #80, #83 ) ;
#12 = DIRECTION ( 'NONE',  ( -3.491481338843133355E-15, 1.224646799147353207E-16, -1.000000000000000000 ) ) ;
#13 = LOCAL_TIME ( 13, 26, 4.000000000000000000, #179 ) ;
#14 = ORIENTED_EDGE ( 'NONE', *, *, #51, .F. ) ;
#15 = EDGE_LOOP ( 'NONE', ( #194 ) ) ;
#16 = LOCAL_TIME ( 13, 26, 4.000000000000000000, #87 ) ;
#17 = APPROVAL ( #182, 'UNSPECIFIED' ) ;
#18 = AXIS2_PLACEMENT_3D ( 'NONE', #65, #139, #31 ) ;
#19 = AXIS2_PLACEMENT_3D ( 'NONE', #8, #45, #64 ) ;
#20 = VERTEX_POINT ( 'NONE', #44 ) ;
#21 = CARTESIAN_POINT ( 'NONE',  ( 1.326762908760390423E-13, -4.653657836759941941E-15, 38.00000000000000000 ) ) ;
#22 = APPROVAL_PERSON_ORGANIZATION ( #11, #129, #192 ) ;
#23 = DATE_AND_TIME ( #101, #13 ) ;
#24 = DIRECTION ( 'NONE',  ( 0.0000000000000000000, 1.000000000000000000, 0.0000000000000000000 ) ) ;
#25 = EDGE_LOOP ( 'NONE', ( #89 ) ) ;
#26 = PERSON_AND_ORGANIZATION_ROLE ( 'classification_officer' ) ;
#27 = CC_DESIGN_DATE_AND_TIME_ASSIGNMENT ( #77, #198, ( #93 ) ) ;
#28 = CYLINDRICAL_SURFACE ( 'NONE', #185, 0.8249999999999962919 ) ;
#29 = MANIFOLD_SOLID_BREP ( 'Corps-Déplacer/Copier1[2]', #56 ) ;
#30 = PERSON_AND_ORGANIZATION_ROLE ( 'creator' ) ;
#31 = DIRECTION ( 'NONE',  ( 0.0000000000000000000, 1.000000000000000000, 0.0000000000000000000 ) ) ;
#32 = EDGE_LOOP ( 'NONE', ( #79 ) ) ;
#33 = CC_DESIGN_PERSON_AND_ORGANIZATION_ASSIGNMENT ( #188, #30, ( #145 ) ) ;
#34 = APPLICATION_CONTEXT ( 'configuration controlled 3d designs of mechanical parts and assemblies' ) ;
#35 = DESIGN_CONTEXT ( 'detailed design', #34, 'design' ) ;
#36 = CONICAL_SURFACE ( 'NONE', #150, 0.6250000000000000000, 0.7853981633974512766 ) ;
#37 = DIRECTION ( 'NONE',  ( -3.491481338843133355E-15, 1.224646799147353207E-16, -1.000000000000000000 ) ) ;
#38 = EDGE_CURVE ( 'NONE', #43, #43, #160, .T. ) ;
#39 = CIRCLE ( 'NONE', #18, 0.8249999999999972911 ) ;
#40 = FACE_OUTER_BOUND ( 'NONE', #49, .T. ) ;
#41 = EDGE_CURVE ( 'NONE', #134, #134, #39, .T. ) ;
#42 = APPROVAL_STATUS ( 'not_yet_approved' ) ;
#43 = VERTEX_POINT ( 'NONE', #164 ) ;
#44 = CARTESIAN_POINT ( 'NONE',  ( 1.343186201451462388E-15, 0.8249999999999952927, 0.3847038179778767830 ) ) ;
#45 = DIRECTION ( 'NONE',  ( 3.491481338843133355E-15, -1.224646799147353207E-16, 1.000000000000000000 ) ) ;
#46 = APPROVAL_ROLE ( '' ) ;
#47 = DIRECTION ( 'NONE',  ( 4.275831445896958607E-31, 1.000000000000000000, 1.224646799147353207E-16 ) ) ;
#48 = FACE_OUTER_BOUND ( 'NONE', #15, .T. ) ;
#49 = EDGE_LOOP ( 'NONE', ( #144 ) ) ;
#50 = PERSON_AND_ORGANIZATION ( #80, #83 ) ;
#51 = EDGE_CURVE ( 'NONE', #152, #152, #112, .T. ) ;
#52 = DIRECTION ( 'NONE',  ( -4.668921077302416672E-31, -1.000000000000000000, -1.314184451497588655E-16 ) ) ;
#53 = ADVANCED_BREP_SHAPE_REPRESENTATION ( '3360', ( #163, #29, #202 ), #187 ) ;
#54 = AXIS2_PLACEMENT_3D ( 'NONE', #201, #37, #24 ) ;
#55 = DIRECTION ( 'NONE',  ( -3.491481338843133355E-15, 1.224646799147353207E-16, -1.000000000000000000 ) ) ;
#56 = CLOSED_SHELL ( 'NONE', ( #68, #158, #111 ) ) ;
#57 = DIRECTION ( 'NONE',  ( -3.491481338843133355E-15, 1.224646799147353207E-16, -1.000000000000000000 ) ) ;
#58 = COORDINATED_UNIVERSAL_TIME_OFFSET ( 1, 0, .AHEAD. ) ;
#59 = VERTEX_POINT ( 'NONE', #176 ) ;
#60 = DIRECTION ( 'NONE',  ( -3.491481338843133355E-15, 1.224646799147353207E-16, -1.000000000000000000 ) ) ;
#61 = AXIS2_PLACEMENT_3D ( 'NONE', #110, #142, #123 ) ;
#62 = DATE_AND_TIME ( #107, #162 ) ;
#63 = PERSON_AND_ORGANIZATION ( #80, #83 ) ;
#64 = DIRECTION ( 'NONE',  ( -4.275831445896958607E-31, -1.000000000000000000, -1.224646799147353207E-16 ) ) ;
#65 = CARTESIAN_POINT ( 'NONE',  ( 5.586370142149013368E-14, -1.959434878635765131E-15, 16.00000000000000000 ) ) ;
#66 = FACE_OUTER_BOUND ( 'NONE', #25, .T. ) ;
#67 = CIRCLE ( 'NONE', #54, 0.6250000000000000000 ) ;
#68 = ADVANCED_FACE ( 'NONE', ( #66 ), #116, .T. ) ;
#69 = APPLICATION_PROTOCOL_DEFINITION ( 'international standard', 'config_control_design', 1994, #175 ) ;
#70 = PERSON_AND_ORGANIZATION_ROLE ( 'design_supplier' ) ;
#71 = PERSON_AND_ORGANIZATION ( #80, #83 ) ;
#72 = EDGE_LOOP ( 'NONE', ( #151 ) ) ;
#73 = COORDINATED_UNIVERSAL_TIME_OFFSET ( 1, 0, .AHEAD. ) ;
#74 = APPROVAL_DATE_TIME ( #9, #129 ) ;
#75 = DIRECTION ( 'NONE',  ( -3.491481338843133355E-15, 1.224646799147353207E-16, -1.000000000000000000 ) ) ;
#76 = CC_DESIGN_APPROVAL ( #129, ( #93 ) ) ;
#77 = DATE_AND_TIME ( #141, #102 ) ;
#78 = EDGE_LOOP ( 'NONE', ( #154 ) ) ;
#79 = ORIENTED_EDGE ( 'NONE', *, *, #38, .F. ) ;
#80 = PERSON ( 'UNSPECIFIED', 'UNSPECIFIED', 'UNSPECIFIED', ('UNSPECIFIED'), ('UNSPECIFIED'), ('UNSPECIFIED') ) ;
#81 = CIRCLE ( 'NONE', #161, 0.8249999999999952927 ) ;
#82 = APPROVAL ( #114, 'UNSPECIFIED' ) ;
#83 = ORGANIZATION ( 'UNSPECIFIED', 'UNSPECIFIED', '' ) ;
#84 = CARTESIAN_POINT ( 'NONE',  ( 1.343186201451461994E-15, -4.711262993063727017E-17, 0.3847038179778766720 ) ) ;
#85 = CARTESIAN_POINT ( 'NONE',  ( 0.0000000000000000000, 0.0000000000000000000, 0.0000000000000000000 ) ) ;
#86 = DIRECTION ( 'NONE',  ( -4.275831445896958607E-31, -1.000000000000000000, -1.224646799147353207E-16 ) ) ;
#87 = COORDINATED_UNIVERSAL_TIME_OFFSET ( 1, 0, .AHEAD. ) ;
#88 =( LENGTH_UNIT ( ) NAMED_UNIT ( * ) SI_UNIT ( .MILLI., .METRE. ) );
#89 = ORIENTED_EDGE ( 'NONE', *, *, #189, .T. ) ;
#90 = PLANE ( 'NONE',  #97 ) ;
#91 = CALENDAR_DATE ( 2021, 6, 10 ) ;
#92 = AXIS2_PLACEMENT_3D ( 'NONE', #4, #57, #47 ) ;
#93 = PRODUCT_DEFINITION ( 'UNKNOWN', '', #145, #35 ) ;
#94 = FACE_OUTER_BOUND ( 'NONE', #72, .T. ) ;
#95 = ORIENTED_EDGE ( 'NONE', *, *, #159, .T. ) ;
#96 = CLOSED_SHELL ( 'NONE', ( #100, #1, #173, #203 ) ) ;
#97 = AXIS2_PLACEMENT_3D ( 'NONE', #109, #172, #86 ) ;
#98 = PLANE ( 'NONE',  #92 ) ;
#99 = SECURITY_CLASSIFICATION_LEVEL ( 'unclassified' ) ;
#100 = ADVANCED_FACE ( 'NONE', ( #48 ), #90, .F. ) ;
#101 = CALENDAR_DATE ( 2021, 6, 10 ) ;
#102 = LOCAL_TIME ( 13, 26, 4.000000000000000000, #195 ) ;
#103 = SHAPE_DEFINITION_REPRESENTATION ( #200, #53 ) ;
#104 = CYLINDRICAL_SURFACE ( 'NONE', #170, 0.8249999999999987343 ) ;
#105 = APPROVAL_DATE_TIME ( #62, #82 ) ;
#106 = FACE_OUTER_BOUND ( 'NONE', #78, .T. ) ;
#107 = CALENDAR_DATE ( 2021, 6, 10 ) ;
#108 = PRODUCT ( '3360', '3360', '', ( #190 ) ) ;
#109 = CARTESIAN_POINT ( 'NONE',  ( 5.586370142149013368E-14, 6.186509103480113368E-33, 16.00000000000000000 ) ) ;
#110 = CARTESIAN_POINT ( 'NONE',  ( 1.319779946082704535E-13, -4.629164900776995227E-15, 37.79999999999999716 ) ) ;
#111 = ADVANCED_FACE ( 'NONE', ( #178 ), #186, .T. ) ;
#112 = CIRCLE ( 'NONE', #3, 0.8249999999999972911 ) ;
#113 = CC_DESIGN_APPROVAL ( #82, ( #147 ) ) ;
#114 = APPROVAL_STATUS ( 'not_yet_approved' ) ;
#115 = FACE_BOUND ( 'NONE', #126, .T. ) ;
#116 = CONICAL_SURFACE ( 'NONE', #133, 0.8249999999999952927, 1.134464013796309123 ) ;
#117 = APPROVAL_PERSON_ORGANIZATION ( #50, #82, #46 ) ;
#118 = CARTESIAN_POINT ( 'NONE',  ( 5.586370142149013368E-14, 0.8249999999999952927, 16.00000000000000000 ) ) ;
#119 = FACE_OUTER_BOUND ( 'NONE', #32, .T. ) ;
#120 = EDGE_LOOP ( 'NONE', ( #136 ) ) ;
#121 = APPROVAL_PERSON_ORGANIZATION ( #63, #17, #169 ) ;
#122 = DIRECTION ( 'NONE',  ( 0.0000000000000000000, 1.000000000000000000, 0.0000000000000000000 ) ) ;
#123 = DIRECTION ( 'NONE',  ( 0.0000000000000000000, 1.000000000000000000, 0.0000000000000000000 ) ) ;
#124 = CC_DESIGN_PERSON_AND_ORGANIZATION_ASSIGNMENT ( #6, #70, ( #145 ) ) ;
#125 = CARTESIAN_POINT ( 'NONE',  ( 0.0000000000000000000, 0.0000000000000000000, 0.0000000000000000000 ) ) ;
#126 = EDGE_LOOP ( 'NONE', ( #95 ) ) ;
#127 = DIRECTION ( 'NONE',  ( 3.491481338843133355E-15, -1.224646799147353207E-16, 1.000000000000000000 ) ) ;
#128 = CC_DESIGN_SECURITY_CLASSIFICATION ( #147, ( #145 ) ) ;
#129 = APPROVAL ( #42, 'UNSPECIFIED' ) ;
#130 = DIRECTION ( 'NONE',  ( 1.000000000000000000, 0.0000000000000000000, 0.0000000000000000000 ) ) ;
#131 = UNCERTAINTY_MEASURE_WITH_UNIT (LENGTH_MEASURE( 1.000000000000000082E-05 ), #88, 'distance_accuracy_value', 'NONE');
#132 = PERSON_AND_ORGANIZATION_ROLE ( 'design_owner' ) ;
#133 = AXIS2_PLACEMENT_3D ( 'NONE', #181, #127, #52 ) ;
#134 = VERTEX_POINT ( 'NONE', #167 ) ;
#135 = APPROVAL_DATE_TIME ( #197, #17 ) ;
#136 = ORIENTED_EDGE ( 'NONE', *, *, #189, .F. ) ;
#137 = CC_DESIGN_PERSON_AND_ORGANIZATION_ASSIGNMENT ( #71, #138, ( #93 ) ) ;
#138 = PERSON_AND_ORGANIZATION_ROLE ( 'creator' ) ;
#139 = DIRECTION ( 'NONE',  ( -3.491481338843133355E-15, 1.224646799147353207E-16, -1.000000000000000000 ) ) ;
#140 = DATE_TIME_ROLE ( 'classification_date' ) ;
#141 = CALENDAR_DATE ( 2021, 6, 10 ) ;
#142 = DIRECTION ( 'NONE',  ( -3.491481338843133355E-15, 1.224646799147353207E-16, -1.000000000000000000 ) ) ;
#143 = DIRECTION ( 'NONE',  ( 0.0000000000000000000, 1.000000000000000000, 0.0000000000000000000 ) ) ;
#144 = ORIENTED_EDGE ( 'NONE', *, *, #159, .F. ) ;
#145 = PRODUCT_DEFINITION_FORMATION_WITH_SPECIFIED_SOURCE ( 'ANY', '', #108, .NOT_KNOWN. ) ;
#146 = CC_DESIGN_PERSON_AND_ORGANIZATION_ASSIGNMENT ( #149, #132, ( #108 ) ) ;
#147 = SECURITY_CLASSIFICATION ( '', '', #99 ) ;
#148 =( NAMED_UNIT ( * ) PLANE_ANGLE_UNIT ( ) SI_UNIT ( $, .RADIAN. ) );
#149 = PERSON_AND_ORGANIZATION ( #80, #83 ) ;
#150 = AXIS2_PLACEMENT_3D ( 'NONE', #21, #55, #122 ) ;
#151 = ORIENTED_EDGE ( 'NONE', *, *, #51, .T. ) ;
#152 = VERTEX_POINT ( 'NONE', #118 ) ;
#153 = DIRECTION ( 'NONE',  ( 0.0000000000000000000, 0.0000000000000000000, 1.000000000000000000 ) ) ;
#154 = ORIENTED_EDGE ( 'NONE', *, *, #38, .T. ) ;
#155 = PERSON_AND_ORGANIZATION ( #80, #83 ) ;
#156 = DIRECTION ( 'NONE',  ( 4.275831445896958607E-31, 1.000000000000000000, 1.224646799147353207E-16 ) ) ;
#157 = ORIENTED_EDGE ( 'NONE', *, *, #41, .F. ) ;
#158 = ADVANCED_FACE ( 'NONE', ( #168, #94 ), #28, .T. ) ;
#159 = EDGE_CURVE ( 'NONE', #59, #59, #67, .T. ) ;
#160 = CIRCLE ( 'NONE', #61, 0.8249999999999999556 ) ;
#161 = AXIS2_PLACEMENT_3D ( 'NONE', #84, #174, #180 ) ;
#162 = LOCAL_TIME ( 13, 26, 4.000000000000000000, #73 ) ;
#163 = MANIFOLD_SOLID_BREP ( 'Corps-Déplacer/Copier1[1]', #96 ) ;
#164 = CARTESIAN_POINT ( 'NONE',  ( 1.319779946082704535E-13, 0.8249999999999952927, 37.79999999999999716 ) ) ;
#165 =( NAMED_UNIT ( * ) SI_UNIT ( $, .STERADIAN. ) SOLID_ANGLE_UNIT ( ) );
#166 = DIRECTION ( 'NONE',  ( 4.275831445896958607E-31, 1.000000000000000000, 1.224646799147353207E-16 ) ) ;
#167 = CARTESIAN_POINT ( 'NONE',  ( 5.586370142149013368E-14, 0.8249999999999952927, 16.00000000000000000 ) ) ;
#168 = FACE_OUTER_BOUND ( 'NONE', #120, .T. ) ;
#169 = APPROVAL_ROLE ( '' ) ;
#170 = AXIS2_PLACEMENT_3D ( 'NONE', #125, #75, #166 ) ;
#171 = CC_DESIGN_APPROVAL ( #17, ( #145 ) ) ;
#172 = DIRECTION ( 'NONE',  ( 3.491481338843133355E-15, -1.224646799147353207E-16, 1.000000000000000000 ) ) ;
#173 = ADVANCED_FACE ( 'NONE', ( #119, #115 ), #36, .T. ) ;
#174 = DIRECTION ( 'NONE',  ( -3.491481338843133355E-15, 1.224646799147353207E-16, -1.000000000000000000 ) ) ;
#175 = APPLICATION_CONTEXT ( 'configuration controlled 3d designs of mechanical parts and assemblies' ) ;
#176 = CARTESIAN_POINT ( 'NONE',  ( 1.326762908760390423E-13, 0.6249999999999953371, 38.00000000000000000 ) ) ;
#177 = PRODUCT_RELATED_PRODUCT_CATEGORY ( 'detail', '', ( #108 ) ) ;
#178 = FACE_OUTER_BOUND ( 'NONE', #199, .T. ) ;
#179 = COORDINATED_UNIVERSAL_TIME_OFFSET ( 1, 0, .AHEAD. ) ;
#180 = DIRECTION ( 'NONE',  ( 4.668921077302416672E-31, 1.000000000000000000, 1.314184451497588655E-16 ) ) ;
#181 = CARTESIAN_POINT ( 'NONE',  ( 1.343186201451461994E-15, -4.711262993063727017E-17, 0.3847038179778766720 ) ) ;
#182 = APPROVAL_STATUS ( 'not_yet_approved' ) ;
#183 = CARTESIAN_POINT ( 'NONE',  ( 0.0000000000000000000, 0.0000000000000000000, 0.0000000000000000000 ) ) ;
#184 = EDGE_LOOP ( 'NONE', ( #157 ) ) ;
#185 = AXIS2_PLACEMENT_3D ( 'NONE', #183, #12, #156 ) ;
#186 = PLANE ( 'NONE',  #19 ) ;
#187 =( GEOMETRIC_REPRESENTATION_CONTEXT ( 3 ) GLOBAL_UNCERTAINTY_ASSIGNED_CONTEXT ( ( #131 ) ) GLOBAL_UNIT_ASSIGNED_CONTEXT ( ( #88, #148, #165 ) ) REPRESENTATION_CONTEXT ( 'NONE', 'WORKASPACE' ) );
#188 = PERSON_AND_ORGANIZATION ( #80, #83 ) ;
#189 = EDGE_CURVE ( 'NONE', #20, #20, #81, .T. ) ;
#190 = MECHANICAL_CONTEXT ( 'NONE', #175, 'mechanical' ) ;
#191 = APPLICATION_PROTOCOL_DEFINITION ( 'international standard', 'config_control_design', 1994, #34 ) ;
#192 = APPROVAL_ROLE ( '' ) ;
#193 = CC_DESIGN_DATE_AND_TIME_ASSIGNMENT ( #23, #140, ( #147 ) ) ;
#194 = ORIENTED_EDGE ( 'NONE', *, *, #41, .T. ) ;
#195 = COORDINATED_UNIVERSAL_TIME_OFFSET ( 1, 0, .AHEAD. ) ;
#196 = CARTESIAN_POINT ( 'NONE',  ( 5.586370142149013368E-14, -1.959434878635765131E-15, 16.00000000000000000 ) ) ;
#197 = DATE_AND_TIME ( #91, #16 ) ;
#198 = DATE_TIME_ROLE ( 'creation_date' ) ;
#199 = EDGE_LOOP ( 'NONE', ( #14 ) ) ;
#200 = PRODUCT_DEFINITION_SHAPE ( 'NONE', 'NONE',  #93 ) ;
#201 = CARTESIAN_POINT ( 'NONE',  ( 1.326762908760390423E-13, -4.653657836759941941E-15, 38.00000000000000000 ) ) ;
#202 = AXIS2_PLACEMENT_3D ( 'NONE', #85, #153, #130 ) ;
#203 = ADVANCED_FACE ( 'NONE', ( #40 ), #98, .F. ) ;
ENDSEC;
END-ISO-10303-21;
