ISO-10303-21;
HEADER;
FILE_DESCRIPTION (( 'STEP AP203' ),
    '1' );
FILE_NAME ('3356.step',
    '2021-09-03T07:22:01',
    ( '' ),
    ( '' ),
    'SwSTEP 2.0',
    'SolidWorks 2019',
    '' );
FILE_SCHEMA (( 'CONFIG_CONTROL_DESIGN' ));
ENDSEC;

DATA;
#1 = APPROVAL ( #146, 'UNSPECIFIED' ) ;
#2 = AXIS2_PLACEMENT_3D ( 'NONE', #221, #317, #193 ) ;
#3 = ORIENTED_EDGE ( 'NONE', *, *, #319, .F. ) ;
#4 = AXIS2_PLACEMENT_3D ( 'NONE', #174, #196, #41 ) ;
#5 = DIRECTION ( 'NONE',  ( 0.0000000000000000000, 1.000000000000000000, 0.0000000000000000000 ) ) ;
#6 = ORIENTED_EDGE ( 'NONE', *, *, #289, .F. ) ;
#7 = PRODUCT_DEFINITION_SHAPE ( 'NONE', 'NONE',  #286 ) ;
#8 = VERTEX_POINT ( 'NONE', #310 ) ;
#9 = DIRECTION ( 'NONE',  ( 3.491481338843133355E-15, -1.224646799147353207E-16, 1.000000000000000000 ) ) ;
#10 = APPROVAL_STATUS ( 'not_yet_approved' ) ;
#11 = VECTOR ( 'NONE', #154, 1000.000000000000000 ) ;
#12 = PERSON_AND_ORGANIZATION ( #159, #126 ) ;
#13 = DATE_TIME_ROLE ( 'classification_date' ) ;
#14 = DIRECTION ( 'NONE',  ( -3.491481338843133355E-15, 1.224646799147353207E-16, -1.000000000000000000 ) ) ;
#15 = CC_DESIGN_DATE_AND_TIME_ASSIGNMENT ( #273, #13, ( #148 ) ) ;
#16 = LINE ( 'NONE', #104, #216 ) ;
#17 = CIRCLE ( 'NONE', #258, 1.624999999999996669 ) ;
#18 = CLOSED_SHELL ( 'NONE', ( #122, #247, #57, #240, #59 ) ) ;
#19 = FACE_OUTER_BOUND ( 'NONE', #58, .T. ) ;
#20 = ORIENTED_EDGE ( 'NONE', *, *, #114, .T. ) ;
#21 = DIRECTION ( 'NONE',  ( -3.491481338843133355E-15, 1.224646799147353207E-16, -1.000000000000000000 ) ) ;
#22 = AXIS2_PLACEMENT_3D ( 'NONE', #99, #93, #189 ) ;
#23 = AXIS2_PLACEMENT_3D ( 'NONE', #290, #14, #127 ) ;
#24 = ORIENTED_EDGE ( 'NONE', *, *, #45, .T. ) ;
#25 = VERTEX_POINT ( 'NONE', #30 ) ;
#26 = ORIENTED_EDGE ( 'NONE', *, *, #115, .T. ) ;
#27 = ORIENTED_EDGE ( 'NONE', *, *, #233, .T. ) ;
#28 = AXIS2_PLACEMENT_3D ( 'NONE', #218, #77, #5 ) ;
#29 = CARTESIAN_POINT ( 'NONE',  ( 3.409077162693274361E-15, -1.195743304966932506E-16, 0.9763985059197931582 ) ) ;
#30 = CARTESIAN_POINT ( 'NONE',  ( 1.094823710106513766E-13, -1.625000000000006661, 48.60000000000000142 ) ) ;
#31 = DIRECTION ( 'NONE',  ( 0.0000000000000000000, 1.000000000000000000, 0.0000000000000000000 ) ) ;
#32 = EDGE_CURVE ( 'NONE', #82, #8, #224, .T. ) ;
#33 = DIRECTION ( 'NONE',  ( -3.491481338843133355E-15, 1.224646799147353207E-16, -1.000000000000000000 ) ) ;
#34 = CIRCLE ( 'NONE', #81, 1.625000000000000888 ) ;
#35 = EDGE_LOOP ( 'NONE', ( #215, #328 ) ) ;
#36 = DIRECTION ( 'NONE',  ( 0.0000000000000000000, 1.000000000000000000, 0.0000000000000000000 ) ) ;
#37 = LINE ( 'NONE', #226, #190 ) ;
#38 = DATE_TIME_ROLE ( 'creation_date' ) ;
#39 = DIRECTION ( 'NONE',  ( -3.491481338843133355E-15, 1.224646799147353207E-16, -1.000000000000000000 ) ) ;
#40 = VERTEX_POINT ( 'NONE', #139 ) ;
#41 = DIRECTION ( 'NONE',  ( 0.0000000000000000000, 1.000000000000000000, 0.0000000000000000000 ) ) ;
#42 = DATE_AND_TIME ( #194, #113 ) ;
#43 = CONICAL_SURFACE ( 'NONE', #232, 1.624999999999995115, 1.029744258676649871 ) ;
#44 = LINE ( 'NONE', #151, #243 ) ;
#45 = EDGE_CURVE ( 'NONE', #25, #211, #34, .T. ) ;
#46 = LINE ( 'NONE', #329, #260 ) ;
#47 = CARTESIAN_POINT ( 'NONE',  ( 0.0000000000000000000, 0.0000000000000000000, 0.0000000000000000000 ) ) ;
#48 = PERSON_AND_ORGANIZATION ( #159, #126 ) ;
#49 = CC_DESIGN_PERSON_AND_ORGANIZATION_ASSIGNMENT ( #129, #179, ( #282 ) ) ;
#50 = DIRECTION ( 'NONE',  ( -4.740750632337826017E-31, -1.000000000000000000, -1.334402673828317283E-16 ) ) ;
#51 = DIRECTION ( 'NONE',  ( 0.0000000000000000000, 1.000000000000000000, 0.0000000000000000000 ) ) ;
#52 = CALENDAR_DATE ( 2021, 3, 9 ) ;
#53 = CONICAL_SURFACE ( 'NONE', #237, 1.624999999999995115, 1.029744258676649871 ) ;
#54 = FACE_OUTER_BOUND ( 'NONE', #266, .T. ) ;
#55 = EDGE_LOOP ( 'NONE', ( #304, #27, #281, #137 ) ) ;
#56 = DIRECTION ( 'NONE',  ( -3.491481338843133355E-15, 1.224646799147353207E-16, -1.000000000000000000 ) ) ;
#57 = ADVANCED_FACE ( 'NONE', ( #63 ), #43, .T. ) ;
#58 = EDGE_LOOP ( 'NONE', ( #87, #24, #235, #278 ) ) ;
#59 = ADVANCED_FACE ( 'NONE', ( #144 ), #323, .T. ) ;
#60 = ORIENTED_EDGE ( 'NONE', *, *, #100, .T. ) ;
#61 = DIRECTION ( 'NONE',  ( -3.491481338843133355E-15, 1.224646799147353207E-16, -1.000000000000000000 ) ) ;
#62 = PLANE ( 'NONE',  #230 ) ;
#63 = FACE_OUTER_BOUND ( 'NONE', #92, .T. ) ;
#64 = CARTESIAN_POINT ( 'NONE',  ( 1.710825856033135470E-13, -6.000769315822030937E-15, 49.00000000000000000 ) ) ;
#65 =( GEOMETRIC_REPRESENTATION_CONTEXT ( 3 ) GLOBAL_UNCERTAINTY_ASSIGNED_CONTEXT ( ( #305 ) ) GLOBAL_UNIT_ASSIGNED_CONTEXT ( ( #279, #256, #254 ) ) REPRESENTATION_CONTEXT ( 'NONE', 'WORKASPACE' ) );
#66 = VECTOR ( 'NONE', #327, 1000.000000000000114 ) ;
#67 = MANIFOLD_SOLID_BREP ( 'Corps-Déplacer/Copier1[1]', #149 ) ;
#68 = CARTESIAN_POINT ( 'NONE',  ( 1.705588015044234009E-13, -1.225000000000007416, 49.00000000000000000 ) ) ;
#69 = ORIENTED_EDGE ( 'NONE', *, *, #306, .T. ) ;
#70 = APPLICATION_PROTOCOL_DEFINITION ( 'international standard', 'config_control_design', 1994, #303 ) ;
#71 = PERSON_AND_ORGANIZATION ( #159, #126 ) ;
#72 = MANIFOLD_SOLID_BREP ( 'Corps-Déplacer/Copier1[2]', #18 ) ;
#73 = CARTESIAN_POINT ( 'NONE',  ( 4.888073874380386697E-14, -1.714505518806294638E-15, 14.00000000000000000 ) ) ;
#74 = PERSON_AND_ORGANIZATION ( #159, #126 ) ;
#75 = COORDINATED_UNIVERSAL_TIME_OFFSET ( 1, 0, .AHEAD. ) ;
#76 = AXIS2_PLACEMENT_3D ( 'NONE', #312, #245, #170 ) ;
#77 = DIRECTION ( 'NONE',  ( -3.491481338843133355E-15, 1.224646799147353207E-16, -1.000000000000000000 ) ) ;
#78 = CYLINDRICAL_SURFACE ( 'NONE', #111, 1.624999999999995781 ) ;
#79 = AXIS2_PLACEMENT_3D ( 'NONE', #182, #86, #185 ) ;
#80 = ORIENTED_EDGE ( 'NONE', *, *, #84, .F. ) ;
#81 = AXIS2_PLACEMENT_3D ( 'NONE', #112, #308, #187 ) ;
#82 = VERTEX_POINT ( 'NONE', #150 ) ;
#83 = ORIENTED_EDGE ( 'NONE', *, *, #169, .T. ) ;
#84 = EDGE_CURVE ( 'NONE', #292, #239, #101, .T. ) ;
#85 = CIRCLE ( 'NONE', #264, 1.225000000000001199 ) ;
#86 = DIRECTION ( 'NONE',  ( -3.491481338843133355E-15, 1.224646799147353207E-16, -1.000000000000000000 ) ) ;
#87 = ORIENTED_EDGE ( 'NONE', *, *, #214, .F. ) ;
#88 = ORIENTED_EDGE ( 'NONE', *, *, #330, .T. ) ;
#89 = APPROVAL_DATE_TIME ( #238, #156 ) ;
#90 = AXIS2_PLACEMENT_3D ( 'NONE', #219, #9, #191 ) ;
#91 = CARTESIAN_POINT ( 'NONE',  ( 3.409077162693274361E-15, -1.195743304966932506E-16, 0.9763985059197931582 ) ) ;
#92 = EDGE_LOOP ( 'NONE', ( #209, #20, #88 ) ) ;
#93 = DIRECTION ( 'NONE',  ( 3.491481338843133355E-15, -1.224646799147353207E-16, 1.000000000000000000 ) ) ;
#94 = PRODUCT_RELATED_PRODUCT_CATEGORY ( 'detail', '', ( #320 ) ) ;
#95 = CONICAL_SURFACE ( 'NONE', #184, 1.225000000000001199, 0.7853981633974507215 ) ;
#96 = CARTESIAN_POINT ( 'NONE',  ( 1.710825856033135470E-13, 9.186028668803797109E-33, 49.00000000000000000 ) ) ;
#97 = ORIENTED_EDGE ( 'NONE', *, *, #188, .T. ) ;
#98 = PERSON_AND_ORGANIZATION_ROLE ( 'design_owner' ) ;
#99 = CARTESIAN_POINT ( 'NONE',  ( 4.888073874380386697E-14, 1.218554823412754380E-32, 14.00000000000000000 ) ) ;
#100 = EDGE_CURVE ( 'NONE', #40, #301, #46, .T. ) ;
#101 = LINE ( 'NONE', #120, #132 ) ;
#102 = DIRECTION ( 'NONE',  ( -3.491481338843133355E-15, 1.224646799147353207E-16, -1.000000000000000000 ) ) ;
#103 = DATE_AND_TIME ( #269, #201 ) ;
#104 = CARTESIAN_POINT ( 'NONE',  ( 1.710825856033135470E-13, 1.224999999999995204, 49.00000000000000000 ) ) ;
#105 = CARTESIAN_POINT ( 'NONE',  ( 3.608082267554719371E-15, 1.624999999999994893, 0.9763985059197932692 ) ) ;
#106 = AXIS2_PLACEMENT_3D ( 'NONE', #205, #175, #331 ) ;
#107 = CC_DESIGN_DATE_AND_TIME_ASSIGNMENT ( #103, #38, ( #286 ) ) ;
#108 = EDGE_LOOP ( 'NONE', ( #296, #97 ) ) ;
#109 = EDGE_LOOP ( 'NONE', ( #186, #116, #26 ) ) ;
#110 = APPROVAL_PERSON_ORGANIZATION ( #48, #156, #249 ) ;
#111 = AXIS2_PLACEMENT_3D ( 'NONE', #47, #102, #155 ) ;
#112 = CARTESIAN_POINT ( 'NONE',  ( 1.696859930677762937E-13, -5.951783443856137509E-15, 48.60000000000000142 ) ) ;
#113 = LOCAL_TIME ( 9, 22, 1.000000000000000000, #75 ) ;
#114 = EDGE_CURVE ( 'NONE', #162, #239, #157, .T. ) ;
#115 = EDGE_CURVE ( 'NONE', #301, #239, #309, .T. ) ;
#116 = ORIENTED_EDGE ( 'NONE', *, *, #131, .T. ) ;
#117 = ORIENTED_EDGE ( 'NONE', *, *, #84, .T. ) ;
#118 = APPLICATION_PROTOCOL_DEFINITION ( 'international standard', 'config_control_design', 1994, #172 ) ;
#119 = CONICAL_SURFACE ( 'NONE', #298, 1.225000000000001199, 0.7853981633974507215 ) ;
#120 = CARTESIAN_POINT ( 'NONE',  ( 1.990051048614437036E-16, -1.624999999999995781, -1.990051048614450595E-16 ) ) ;
#121 = COORDINATED_UNIVERSAL_TIME_OFFSET ( 1, 0, .AHEAD. ) ;
#122 = ADVANCED_FACE ( 'NONE', ( #250 ), #248, .T. ) ;
#123 = LINE ( 'NONE', #229, #66 ) ;
#124 = CARTESIAN_POINT ( 'NONE',  ( 1.710825856033135470E-13, 1.224999999999995204, 49.00000000000000000 ) ) ;
#125 = EDGE_LOOP ( 'NONE', ( #69, #83, #6, #165 ) ) ;
#126 = ORGANIZATION ( 'UNSPECIFIED', 'UNSPECIFIED', '' ) ;
#127 = DIRECTION ( 'NONE',  ( 4.275831445896958607E-31, 1.000000000000000000, 1.224646799147353207E-16 ) ) ;
#128 = CC_DESIGN_APPROVAL ( #156, ( #148 ) ) ;
#129 = PERSON_AND_ORGANIZATION ( #159, #126 ) ;
#130 = CYLINDRICAL_SURFACE ( 'NONE', #106, 1.624999999999998890 ) ;
#131 = EDGE_CURVE ( 'NONE', #162, #301, #123, .T. ) ;
#132 = VECTOR ( 'NONE', #39, 1000.000000000000000 ) ;
#133 = CC_DESIGN_PERSON_AND_ORGANIZATION_ASSIGNMENT ( #228, #98, ( #320 ) ) ;
#134 = DIRECTION ( 'NONE',  ( -4.740750632337826017E-31, -1.000000000000000000, -1.334402673828317283E-16 ) ) ;
#135 = DESIGN_CONTEXT ( 'detailed design', #303, 'design' ) ;
#136 = ORIENTED_EDGE ( 'NONE', *, *, #252, .F. ) ;
#137 = ORIENTED_EDGE ( 'NONE', *, *, #45, .F. ) ;
#138 = CARTESIAN_POINT ( 'NONE',  ( 4.888073874380386697E-14, -1.714505518806294638E-15, 14.00000000000000000 ) ) ;
#139 = CARTESIAN_POINT ( 'NONE',  ( 4.888073874380386697E-14, 1.624999999999994893, 14.00000000000000000 ) ) ;
#140 = CIRCLE ( 'NONE', #2, 1.624999999999995115 ) ;
#141 = CC_DESIGN_PERSON_AND_ORGANIZATION_ASSIGNMENT ( #198, #274, ( #148 ) ) ;
#142 = AXIS2_PLACEMENT_3D ( 'NONE', #173, #321, #195 ) ;
#143 = SHAPE_DEFINITION_REPRESENTATION ( #7, #177 ) ;
#144 = FACE_OUTER_BOUND ( 'NONE', #213, .T. ) ;
#145 = FACE_OUTER_BOUND ( 'NONE', #35, .T. ) ;
#146 = APPROVAL_STATUS ( 'not_yet_approved' ) ;
#147 = EDGE_CURVE ( 'NONE', #299, #211, #16, .T. ) ;
#148 = SECURITY_CLASSIFICATION ( '', '', #326 ) ;
#149 = CLOSED_SHELL ( 'NONE', ( #297, #271, #334, #168, #202, #206 ) ) ;
#150 = CARTESIAN_POINT ( 'NONE',  ( 4.888073874380386697E-14, 1.624999999999994893, 14.00000000000000000 ) ) ;
#151 = CARTESIAN_POINT ( 'NONE',  ( 1.712326048362090730E-13, -1.225000000000007416, 49.00000000000000000 ) ) ;
#152 = CARTESIAN_POINT ( 'NONE',  ( 3.409077162693273572E-15, -1.624999999999995337, 0.9763985059197929361 ) ) ;
#153 = APPROVAL_STATUS ( 'not_yet_approved' ) ;
#154 = DIRECTION ( 'NONE',  ( 1.798245827342159528E-15, -0.8571673007021100021, 0.5150380749100580413 ) ) ;
#155 = DIRECTION ( 'NONE',  ( 4.275831445896958607E-31, 1.000000000000000000, 1.224646799147353207E-16 ) ) ;
#156 = APPROVAL ( #153, 'UNSPECIFIED' ) ;
#157 = LINE ( 'NONE', #152, #11 ) ;
#158 = VECTOR ( 'NONE', #56, 1000.000000000000000 ) ;
#159 = PERSON ( 'UNSPECIFIED', 'UNSPECIFIED', 'UNSPECIFIED', ('UNSPECIFIED'), ('UNSPECIFIED'), ('UNSPECIFIED') ) ;
#160 = CC_DESIGN_SECURITY_CLASSIFICATION ( #148, ( #282 ) ) ;
#161 = CIRCLE ( 'NONE', #76, 1.624999999999996669 ) ;
#162 = VERTEX_POINT ( 'NONE', #231 ) ;
#163 = ORIENTED_EDGE ( 'NONE', *, *, #115, .F. ) ;
#164 = FACE_OUTER_BOUND ( 'NONE', #125, .T. ) ;
#165 = ORIENTED_EDGE ( 'NONE', *, *, #147, .F. ) ;
#166 = LOCAL_TIME ( 9, 22, 1.000000000000000000, #204 ) ;
#167 = CALENDAR_DATE ( 2021, 3, 9 ) ;
#168 = ADVANCED_FACE ( 'NONE', ( #19 ), #130, .T. ) ;
#169 = EDGE_CURVE ( 'NONE', #307, #25, #44, .T. ) ;
#170 = DIRECTION ( 'NONE',  ( 0.0000000000000000000, 1.000000000000000000, 0.0000000000000000000 ) ) ;
#171 = APPROVAL_DATE_TIME ( #42, #1 ) ;
#172 = APPLICATION_CONTEXT ( 'configuration controlled 3d designs of mechanical parts and assemblies' ) ;
#173 = CARTESIAN_POINT ( 'NONE',  ( 3.409077162693274361E-15, -1.195743304966932506E-16, 0.9763985059197931582 ) ) ;
#174 = CARTESIAN_POINT ( 'NONE',  ( 4.888073874380386697E-14, -1.714505518806294638E-15, 14.00000000000000000 ) ) ;
#175 = DIRECTION ( 'NONE',  ( -3.491481338843133355E-15, 1.224646799147353207E-16, -1.000000000000000000 ) ) ;
#176 = CIRCLE ( 'NONE', #28, 1.225000000000001199 ) ;
#177 = ADVANCED_BREP_SHAPE_REPRESENTATION ( '3356', ( #67, #72, #302 ), #65 ) ;
#178 = DATE_AND_TIME ( #227, #242 ) ;
#179 = PERSON_AND_ORGANIZATION_ROLE ( 'creator' ) ;
#180 = AXIS2_PLACEMENT_3D ( 'NONE', #207, #21, #300 ) ;
#181 = EDGE_CURVE ( 'NONE', #40, #292, #161, .T. ) ;
#182 = CARTESIAN_POINT ( 'NONE',  ( 1.696859930677762937E-13, -5.951783443856137509E-15, 48.60000000000000142 ) ) ;
#183 = ORIENTED_EDGE ( 'NONE', *, *, #181, .T. ) ;
#184 = AXIS2_PLACEMENT_3D ( 'NONE', #314, #261, #315 ) ;
#185 = DIRECTION ( 'NONE',  ( 0.0000000000000000000, 1.000000000000000000, 0.0000000000000000000 ) ) ;
#186 = ORIENTED_EDGE ( 'NONE', *, *, #114, .F. ) ;
#187 = DIRECTION ( 'NONE',  ( 0.0000000000000000000, 1.000000000000000000, 0.0000000000000000000 ) ) ;
#188 = EDGE_CURVE ( 'NONE', #8, #82, #253, .T. ) ;
#189 = DIRECTION ( 'NONE',  ( -4.275831445896958607E-31, -1.000000000000000000, -1.224646799147353207E-16 ) ) ;
#190 = VECTOR ( 'NONE', #284, 1000.000000000000000 ) ;
#191 = DIRECTION ( 'NONE',  ( -4.275831445896958607E-31, -1.000000000000000000, -1.224646799147353207E-16 ) ) ;
#192 = DIRECTION ( 'NONE',  ( 4.275831445896958607E-31, 1.000000000000000000, 1.224646799147353207E-16 ) ) ;
#193 = DIRECTION ( 'NONE',  ( 4.740750632337826017E-31, 1.000000000000000000, 1.334402673828317283E-16 ) ) ;
#194 = CALENDAR_DATE ( 2021, 3, 9 ) ;
#195 = DIRECTION ( 'NONE',  ( 4.740750632337826017E-31, 1.000000000000000000, 1.334402673828317283E-16 ) ) ;
#196 = DIRECTION ( 'NONE',  ( -3.491481338843133355E-15, 1.224646799147353207E-16, -1.000000000000000000 ) ) ;
#197 = MECHANICAL_CONTEXT ( 'NONE', #172, 'mechanical' ) ;
#198 = PERSON_AND_ORGANIZATION ( #159, #126 ) ;
#199 = PERSON_AND_ORGANIZATION ( #159, #126 ) ;
#200 = ORIENTED_EDGE ( 'NONE', *, *, #100, .F. ) ;
#201 = LOCAL_TIME ( 9, 22, 1.000000000000000000, #288 ) ;
#202 = ADVANCED_FACE ( 'NONE', ( #220 ), #95, .T. ) ;
#203 = PERSON_AND_ORGANIZATION_ROLE ( 'design_supplier' ) ;
#204 = COORDINATED_UNIVERSAL_TIME_OFFSET ( 1, 0, .AHEAD. ) ;
#205 = CARTESIAN_POINT ( 'NONE',  ( 0.0000000000000000000, 0.0000000000000000000, 0.0000000000000000000 ) ) ;
#206 = ADVANCED_FACE ( 'NONE', ( #145 ), #62, .F. ) ;
#207 = CARTESIAN_POINT ( 'NONE',  ( 0.0000000000000000000, 0.0000000000000000000, 0.0000000000000000000 ) ) ;
#208 = CIRCLE ( 'NONE', #79, 1.625000000000000888 ) ;
#209 = ORIENTED_EDGE ( 'NONE', *, *, #131, .F. ) ;
#210 = APPROVAL ( #10, 'UNSPECIFIED' ) ;
#211 = VERTEX_POINT ( 'NONE', #287 ) ;
#212 = DIRECTION ( 'NONE',  ( -2.382254525458710370E-15, -0.7071067811865491270, -0.7071067811865459074 ) ) ;
#213 = EDGE_LOOP ( 'NONE', ( #244, #3 ) ) ;
#214 = EDGE_CURVE ( 'NONE', #25, #8, #37, .T. ) ;
#215 = ORIENTED_EDGE ( 'NONE', *, *, #306, .F. ) ;
#216 = VECTOR ( 'NONE', #294, 1000.000000000000000 ) ;
#217 = ORIENTED_EDGE ( 'NONE', *, *, #330, .F. ) ;
#218 = CARTESIAN_POINT ( 'NONE',  ( 1.710825856033135470E-13, -6.000769315822030937E-15, 49.00000000000000000 ) ) ;
#219 = CARTESIAN_POINT ( 'NONE',  ( 4.888073874380386697E-14, 1.218554823412754380E-32, 14.00000000000000000 ) ) ;
#220 = FACE_OUTER_BOUND ( 'NONE', #55, .T. ) ;
#221 = CARTESIAN_POINT ( 'NONE',  ( 3.409077162693274361E-15, -1.195743304966932506E-16, 0.9763985059197931582 ) ) ;
#222 = CARTESIAN_POINT ( 'NONE',  ( 0.0000000000000000000, 0.0000000000000000000, 0.0000000000000000000 ) ) ;
#223 = LOCAL_TIME ( 9, 22, 1.000000000000000000, #262 ) ;
#224 = CIRCLE ( 'NONE', #335, 1.624999999999996669 ) ;
#225 = DIRECTION ( 'NONE',  ( -3.491481338843133355E-15, 1.224646799147353207E-16, -1.000000000000000000 ) ) ;
#226 = CARTESIAN_POINT ( 'NONE',  ( 1.990051048614440734E-16, -1.624999999999998890, -1.990051048614454539E-16 ) ) ;
#227 = CALENDAR_DATE ( 2021, 3, 9 ) ;
#228 = PERSON_AND_ORGANIZATION ( #159, #126 ) ;
#229 = CARTESIAN_POINT ( 'NONE',  ( 3.608082267554719371E-15, 1.624999999999994893, 0.9763985059197932692 ) ) ;
#230 = AXIS2_PLACEMENT_3D ( 'NONE', #96, #268, #192 ) ;
#231 = CARTESIAN_POINT ( 'NONE',  ( 0.0000000000000000000, 0.0000000000000000000, 0.0000000000000000000 ) ) ;
#232 = AXIS2_PLACEMENT_3D ( 'NONE', #91, #285, #50 ) ;
#233 = EDGE_CURVE ( 'NONE', #307, #299, #85, .T. ) ;
#234 = CARTESIAN_POINT ( 'NONE',  ( 6.948226099582552262E-31, 1.624999999999998890, 1.990051048614447390E-16 ) ) ;
#235 = ORIENTED_EDGE ( 'NONE', *, *, #252, .T. ) ;
#236 = EDGE_LOOP ( 'NONE', ( #183, #117, #163, #200 ) ) ;
#237 = AXIS2_PLACEMENT_3D ( 'NONE', #29, #332, #134 ) ;
#238 = DATE_AND_TIME ( #167, #223 ) ;
#239 = VERTEX_POINT ( 'NONE', #295 ) ;
#240 = ADVANCED_FACE ( 'NONE', ( #291 ), #78, .T. ) ;
#241 = ORIENTED_EDGE ( 'NONE', *, *, #319, .T. ) ;
#242 = LOCAL_TIME ( 9, 22, 1.000000000000000000, #121 ) ;
#243 = VECTOR ( 'NONE', #212, 1000.000000000000000 ) ;
#244 = ORIENTED_EDGE ( 'NONE', *, *, #181, .F. ) ;
#245 = DIRECTION ( 'NONE',  ( -3.491481338843133355E-15, 1.224646799147353207E-16, -1.000000000000000000 ) ) ;
#246 = DIRECTION ( 'NONE',  ( 0.0000000000000000000, 0.0000000000000000000, 1.000000000000000000 ) ) ;
#247 = ADVANCED_FACE ( 'NONE', ( #259 ), #53, .T. ) ;
#248 = CYLINDRICAL_SURFACE ( 'NONE', #23, 1.624999999999995781 ) ;
#249 = APPROVAL_ROLE ( '' ) ;
#250 = FACE_OUTER_BOUND ( 'NONE', #236, .T. ) ;
#251 = APPROVAL_PERSON_ORGANIZATION ( #199, #210, #293 ) ;
#252 = EDGE_CURVE ( 'NONE', #211, #82, #275, .T. ) ;
#253 = CIRCLE ( 'NONE', #4, 1.624999999999996669 ) ;
#254 =( NAMED_UNIT ( * ) SI_UNIT ( $, .STERADIAN. ) SOLID_ANGLE_UNIT ( ) );
#255 = CYLINDRICAL_SURFACE ( 'NONE', #180, 1.624999999999998890 ) ;
#256 =( NAMED_UNIT ( * ) PLANE_ANGLE_UNIT ( ) SI_UNIT ( $, .RADIAN. ) );
#257 = DIRECTION ( 'NONE',  ( -3.491481338843133355E-15, 1.224646799147353207E-16, -1.000000000000000000 ) ) ;
#258 = AXIS2_PLACEMENT_3D ( 'NONE', #73, #267, #36 ) ;
#259 = FACE_OUTER_BOUND ( 'NONE', #109, .T. ) ;
#260 = VECTOR ( 'NONE', #225, 1000.000000000000000 ) ;
#261 = DIRECTION ( 'NONE',  ( -3.491481338843133355E-15, 1.224646799147353207E-16, -1.000000000000000000 ) ) ;
#262 = COORDINATED_UNIVERSAL_TIME_OFFSET ( 1, 0, .AHEAD. ) ;
#263 = CC_DESIGN_APPROVAL ( #210, ( #282 ) ) ;
#264 = AXIS2_PLACEMENT_3D ( 'NONE', #64, #33, #51 ) ;
#265 = CC_DESIGN_PERSON_AND_ORGANIZATION_ASSIGNMENT ( #12, #325, ( #286 ) ) ;
#266 = EDGE_LOOP ( 'NONE', ( #333, #277, #283, #136 ) ) ;
#267 = DIRECTION ( 'NONE',  ( -3.491481338843133355E-15, 1.224646799147353207E-16, -1.000000000000000000 ) ) ;
#268 = DIRECTION ( 'NONE',  ( -3.491481338843133355E-15, 1.224646799147353207E-16, -1.000000000000000000 ) ) ;
#269 = CALENDAR_DATE ( 2021, 3, 9 ) ;
#270 = APPROVAL_ROLE ( '' ) ;
#271 = ADVANCED_FACE ( 'NONE', ( #54 ), #255, .T. ) ;
#272 = CC_DESIGN_APPROVAL ( #1, ( #286 ) ) ;
#273 = DATE_AND_TIME ( #52, #166 ) ;
#274 = PERSON_AND_ORGANIZATION_ROLE ( 'classification_officer' ) ;
#275 = LINE ( 'NONE', #234, #158 ) ;
#276 = APPROVAL_PERSON_ORGANIZATION ( #74, #1, #270 ) ;
#277 = ORIENTED_EDGE ( 'NONE', *, *, #214, .T. ) ;
#278 = ORIENTED_EDGE ( 'NONE', *, *, #188, .F. ) ;
#279 =( LENGTH_UNIT ( ) NAMED_UNIT ( * ) SI_UNIT ( .MILLI., .METRE. ) );
#280 = CARTESIAN_POINT ( 'NONE',  ( 2.634391305810999063E-14, -1.624999999999998446, 14.00000000000000000 ) ) ;
#281 = ORIENTED_EDGE ( 'NONE', *, *, #147, .T. ) ;
#282 = PRODUCT_DEFINITION_FORMATION_WITH_SPECIFIED_SOURCE ( 'ANY', '', #320, .NOT_KNOWN. ) ;
#283 = ORIENTED_EDGE ( 'NONE', *, *, #32, .F. ) ;
#284 = DIRECTION ( 'NONE',  ( -3.491481338843133355E-15, 1.224646799147353207E-16, -1.000000000000000000 ) ) ;
#285 = DIRECTION ( 'NONE',  ( 3.491481338843133355E-15, -1.224646799147353207E-16, 1.000000000000000000 ) ) ;
#286 = PRODUCT_DEFINITION ( 'UNKNOWN', '', #282, #135 ) ;
#287 = CARTESIAN_POINT ( 'NONE',  ( 1.696859930677762937E-13, 1.624999999999994893, 48.60000000000000142 ) ) ;
#288 = COORDINATED_UNIVERSAL_TIME_OFFSET ( 1, 0, .AHEAD. ) ;
#289 = EDGE_CURVE ( 'NONE', #211, #25, #208, .T. ) ;
#290 = CARTESIAN_POINT ( 'NONE',  ( 0.0000000000000000000, 0.0000000000000000000, 0.0000000000000000000 ) ) ;
#291 = FACE_OUTER_BOUND ( 'NONE', #316, .T. ) ;
#292 = VERTEX_POINT ( 'NONE', #280 ) ;
#293 = APPROVAL_ROLE ( '' ) ;
#294 = DIRECTION ( 'NONE',  ( -2.468850131082259033E-15, 0.7071067811865493491, -0.7071067811865456854 ) ) ;
#295 = CARTESIAN_POINT ( 'NONE',  ( 3.409077162693273572E-15, -1.624999999999995337, 0.9763985059197929361 ) ) ;
#296 = ORIENTED_EDGE ( 'NONE', *, *, #32, .T. ) ;
#297 = ADVANCED_FACE ( 'NONE', ( #164 ), #119, .T. ) ;
#298 = AXIS2_PLACEMENT_3D ( 'NONE', #336, #257, #324 ) ;
#299 = VERTEX_POINT ( 'NONE', #124 ) ;
#300 = DIRECTION ( 'NONE',  ( 4.275831445896957731E-31, 1.000000000000000000, 1.224646799147352961E-16 ) ) ;
#301 = VERTEX_POINT ( 'NONE', #105 ) ;
#302 = AXIS2_PLACEMENT_3D ( 'NONE', #222, #246, #318 ) ;
#303 = APPLICATION_CONTEXT ( 'configuration controlled 3d designs of mechanical parts and assemblies' ) ;
#304 = ORIENTED_EDGE ( 'NONE', *, *, #169, .F. ) ;
#305 = UNCERTAINTY_MEASURE_WITH_UNIT (LENGTH_MEASURE( 1.000000000000000082E-05 ), #279, 'distance_accuracy_value', 'NONE');
#306 = EDGE_CURVE ( 'NONE', #299, #307, #176, .T. ) ;
#307 = VERTEX_POINT ( 'NONE', #68 ) ;
#308 = DIRECTION ( 'NONE',  ( -3.491481338843133355E-15, 1.224646799147353207E-16, -1.000000000000000000 ) ) ;
#309 = CIRCLE ( 'NONE', #142, 1.624999999999995115 ) ;
#310 = CARTESIAN_POINT ( 'NONE',  ( 1.094823710106514902E-13, -1.624999999999998446, 14.00000000000000000 ) ) ;
#311 = CC_DESIGN_PERSON_AND_ORGANIZATION_ASSIGNMENT ( #71, #203, ( #282 ) ) ;
#312 = CARTESIAN_POINT ( 'NONE',  ( 4.888073874380386697E-14, -1.714505518806294638E-15, 14.00000000000000000 ) ) ;
#313 = PLANE ( 'NONE',  #22 ) ;
#314 = CARTESIAN_POINT ( 'NONE',  ( 1.710825856033135470E-13, -6.000769315822030937E-15, 49.00000000000000000 ) ) ;
#315 = DIRECTION ( 'NONE',  ( 0.0000000000000000000, 1.000000000000000000, 0.0000000000000000000 ) ) ;
#316 = EDGE_LOOP ( 'NONE', ( #80, #241, #60, #217 ) ) ;
#317 = DIRECTION ( 'NONE',  ( -3.491481338843133355E-15, 1.224646799147353207E-16, -1.000000000000000000 ) ) ;
#318 = DIRECTION ( 'NONE',  ( 1.000000000000000000, 0.0000000000000000000, 0.0000000000000000000 ) ) ;
#319 = EDGE_CURVE ( 'NONE', #292, #40, #17, .T. ) ;
#320 = PRODUCT ( '3356', '3356', '', ( #197 ) ) ;
#321 = DIRECTION ( 'NONE',  ( -3.491481338843133355E-15, 1.224646799147353207E-16, -1.000000000000000000 ) ) ;
#322 = APPROVAL_DATE_TIME ( #178, #210 ) ;
#323 = PLANE ( 'NONE',  #90 ) ;
#324 = DIRECTION ( 'NONE',  ( 0.0000000000000000000, 1.000000000000000000, 0.0000000000000000000 ) ) ;
#325 = PERSON_AND_ORGANIZATION_ROLE ( 'creator' ) ;
#326 = SECURITY_CLASSIFICATION_LEVEL ( 'unclassified' ) ;
#327 = DIRECTION ( 'NONE',  ( 1.903218546456021928E-15, 0.8571673007021098911, 0.5150380749100583744 ) ) ;
#328 = ORIENTED_EDGE ( 'NONE', *, *, #233, .F. ) ;
#329 = CARTESIAN_POINT ( 'NONE',  ( 6.948226099582540000E-31, 1.624999999999995781, 1.990051048614443939E-16 ) ) ;
#330 = EDGE_CURVE ( 'NONE', #239, #301, #140, .T. ) ;
#331 = DIRECTION ( 'NONE',  ( 4.275831445896957731E-31, 1.000000000000000000, 1.224646799147352961E-16 ) ) ;
#332 = DIRECTION ( 'NONE',  ( 3.491481338843133355E-15, -1.224646799147353207E-16, 1.000000000000000000 ) ) ;
#333 = ORIENTED_EDGE ( 'NONE', *, *, #289, .T. ) ;
#334 = ADVANCED_FACE ( 'NONE', ( #337 ), #313, .F. ) ;
#335 = AXIS2_PLACEMENT_3D ( 'NONE', #138, #61, #31 ) ;
#336 = CARTESIAN_POINT ( 'NONE',  ( 1.710825856033135470E-13, -6.000769315822030937E-15, 49.00000000000000000 ) ) ;
#337 = FACE_OUTER_BOUND ( 'NONE', #108, .T. ) ;
ENDSEC;
END-ISO-10303-21;
