ISO-10303-21;
HEADER;
FILE_DESCRIPTION (( 'STEP AP203' ),
    '1' );
FILE_NAME ('334969.step',
    '2021-11-15T08:06:07',
    ( '' ),
    ( '' ),
    'SwSTEP 2.0',
    'SolidWorks 2019',
    '' );
FILE_SCHEMA (( 'CONFIG_CONTROL_DESIGN' ));
ENDSEC;

DATA;
#1 = ORIENTED_EDGE ( 'NONE', *, *, #165, .T. ) ;
#2 = CC_DESIGN_SECURITY_CLASSIFICATION ( #86, ( #175 ) ) ;
#3 = DIRECTION ( 'NONE',  ( 4.275831445896958607E-31, 1.000000000000000000, 1.224646799147353207E-16 ) ) ;
#4 = CARTESIAN_POINT ( 'NONE',  ( 1.047444401652940007E-13, 7.999999999999996447, 30.00000000000000000 ) ) ;
#5 = CYLINDRICAL_SURFACE ( 'NONE', #106, 7.999999999999994671 ) ;
#6 =( NAMED_UNIT ( * ) PLANE_ANGLE_UNIT ( ) SI_UNIT ( $, .RADIAN. ) );
#7 = PLANE ( 'NONE',  #35 ) ;
#8 = DATE_AND_TIME ( #179, #159 ) ;
#9 = COORDINATED_UNIVERSAL_TIME_OFFSET ( 1, 0, .AHEAD. ) ;
#10 = PERSON_AND_ORGANIZATION ( #170, #115 ) ;
#11 = AXIS2_PLACEMENT_3D ( 'NONE', #58, #13, #122 ) ;
#12 = CC_DESIGN_PERSON_AND_ORGANIZATION_ASSIGNMENT ( #10, #71, ( #175 ) ) ;
#13 = DIRECTION ( 'NONE',  ( -3.491481338843133355E-15, 1.224646799147353207E-16, -1.000000000000000000 ) ) ;
#14 = EDGE_CURVE ( 'NONE', #30, #30, #93, .T. ) ;
#15 = VERTEX_POINT ( 'NONE', #124 ) ;
#16 = CARTESIAN_POINT ( 'NONE',  ( 1.047444401652940007E-13, 7.999999999999996447, 30.00000000000000000 ) ) ;
#17 = FACE_OUTER_BOUND ( 'NONE', #87, .T. ) ;
#18 = CC_DESIGN_DATE_AND_TIME_ASSIGNMENT ( #8, #23, ( #86 ) ) ;
#19 =( NAMED_UNIT ( * ) SI_UNIT ( $, .STERADIAN. ) SOLID_ANGLE_UNIT ( ) );
#20 = COORDINATED_UNIVERSAL_TIME_OFFSET ( 1, 0, .AHEAD. ) ;
#21 = APPLICATION_PROTOCOL_DEFINITION ( 'international standard', 'config_control_design', 1994, #102 ) ;
#22 = APPROVAL_PERSON_ORGANIZATION ( #199, #203, #53 ) ;
#23 = DATE_TIME_ROLE ( 'classification_date' ) ;
#24 = CARTESIAN_POINT ( 'NONE',  ( 0.0000000000000000000, 0.0000000000000000000, 0.0000000000000000000 ) ) ;
#25 = EDGE_LOOP ( 'NONE', ( #41 ) ) ;
#26 = CC_DESIGN_APPROVAL ( #61, ( #175 ) ) ;
#27 = DIRECTION ( 'NONE',  ( -4.275831445896958607E-31, -1.000000000000000000, -1.224646799147353207E-16 ) ) ;
#28 = FACE_OUTER_BOUND ( 'NONE', #135, .T. ) ;
#29 = CC_DESIGN_PERSON_AND_ORGANIZATION_ASSIGNMENT ( #98, #33, ( #86 ) ) ;
#30 = VERTEX_POINT ( 'NONE', #92 ) ;
#31 = AXIS2_PLACEMENT_3D ( 'NONE', #193, #126, #107 ) ;
#32 = DIRECTION ( 'NONE',  ( -3.491481338843133355E-15, 1.224646799147353207E-16, -1.000000000000000000 ) ) ;
#33 = PERSON_AND_ORGANIZATION_ROLE ( 'classification_officer' ) ;
#34 = APPROVAL_DATE_TIME ( #196, #203 ) ;
#35 = AXIS2_PLACEMENT_3D ( 'NONE', #108, #50, #47 ) ;
#36 = PERSON_AND_ORGANIZATION ( #170, #115 ) ;
#37 = PRODUCT_DEFINITION ( 'UNKNOWN', '', #175, #55 ) ;
#38 = DATE_AND_TIME ( #96, #44 ) ;
#39 = CONICAL_SURFACE ( 'NONE', #152, 7.999999999999989342, 0.7853981633974482790 ) ;
#40 = EDGE_CURVE ( 'NONE', #157, #157, #148, .T. ) ;
#41 = ORIENTED_EDGE ( 'NONE', *, *, #14, .F. ) ;
#42 = EDGE_LOOP ( 'NONE', ( #164 ) ) ;
#43 = FACE_OUTER_BOUND ( 'NONE', #119, .T. ) ;
#44 = LOCAL_TIME ( 9, 6, 7.000000000000000000, #197 ) ;
#45 = CARTESIAN_POINT ( 'NONE',  ( 1.047444401652940007E-13, -3.673940397442059178E-15, 30.00000000000000000 ) ) ;
#46 = CARTESIAN_POINT ( 'NONE',  ( -3.420665156717566185E-30, 1.199807826129486086E-31, -9.797174393178825657E-16 ) ) ;
#47 = DIRECTION ( 'NONE',  ( 4.275831445896958607E-31, 1.000000000000000000, 1.224646799147353207E-16 ) ) ;
#48 = ADVANCED_FACE ( 'NONE', ( #187, #103 ), #39, .T. ) ;
#49 = AXIS2_PLACEMENT_3D ( 'NONE', #24, #84, #85 ) ;
#50 = DIRECTION ( 'NONE',  ( -3.491481338843133355E-15, 1.224646799147353207E-16, -1.000000000000000000 ) ) ;
#51 = ADVANCED_BREP_SHAPE_REPRESENTATION ( '334969', ( #109, #183, #49 ), #89 ) ;
#52 = PERSON_AND_ORGANIZATION ( #170, #115 ) ;
#53 = APPROVAL_ROLE ( '' ) ;
#54 = PERSON_AND_ORGANIZATION_ROLE ( 'creator' ) ;
#55 = DESIGN_CONTEXT ( 'detailed design', #125, 'design' ) ;
#56 = DIRECTION ( 'NONE',  ( -3.491481338843133355E-15, 1.224646799147353207E-16, -1.000000000000000000 ) ) ;
#57 = ORIENTED_EDGE ( 'NONE', *, *, #165, .F. ) ;
#58 = CARTESIAN_POINT ( 'NONE',  ( 2.880472104545584703E-13, -1.010333609296566392E-14, 82.50000000000000000 ) ) ;
#59 = EDGE_CURVE ( 'NONE', #15, #15, #202, .T. ) ;
#60 = DIRECTION ( 'NONE',  ( -3.491481338843133355E-15, 1.224646799147353207E-16, -1.000000000000000000 ) ) ;
#61 = APPROVAL ( #162, 'UNSPECIFIED' ) ;
#62 = AXIS2_PLACEMENT_3D ( 'NONE', #155, #173, #63 ) ;
#63 = DIRECTION ( 'NONE',  ( -4.275831445896958607E-31, -1.000000000000000000, -1.224646799147353207E-16 ) ) ;
#64 = ADVANCED_FACE ( 'NONE', ( #172 ), #76, .T. ) ;
#65 = DIRECTION ( 'NONE',  ( 4.275831445896958607E-31, 1.000000000000000000, 1.224646799147353207E-16 ) ) ;
#66 = APPROVAL_STATUS ( 'not_yet_approved' ) ;
#67 = CALENDAR_DATE ( 2021, 15, 11 ) ;
#68 = APPROVAL_DATE_TIME ( #147, #61 ) ;
#69 = CC_DESIGN_PERSON_AND_ORGANIZATION_ASSIGNMENT ( #131, #118, ( #175 ) ) ;
#70 = CLOSED_SHELL ( 'NONE', ( #130, #145, #48, #110 ) ) ;
#71 = PERSON_AND_ORGANIZATION_ROLE ( 'design_supplier' ) ;
#72 = ORIENTED_EDGE ( 'NONE', *, *, #74, .F. ) ;
#73 = LOCAL_TIME ( 9, 6, 7.000000000000000000, #198 ) ;
#74 = EDGE_CURVE ( 'NONE', #105, #105, #95, .T. ) ;
#75 = CC_DESIGN_APPROVAL ( #203, ( #86 ) ) ;
#76 = PLANE ( 'NONE',  #31 ) ;
#77 = ADVANCED_FACE ( 'NONE', ( #17, #168 ), #129, .T. ) ;
#78 = CARTESIAN_POINT ( 'NONE',  ( 1.047444401652940007E-13, -3.673940397442059178E-15, 30.00000000000000000 ) ) ;
#79 = CARTESIAN_POINT ( 'NONE',  ( 0.0000000000000000000, 0.0000000000000000000, 0.0000000000000000000 ) ) ;
#80 =( LENGTH_UNIT ( ) NAMED_UNIT ( * ) SI_UNIT ( .MILLI., .METRE. ) );
#81 = MECHANICAL_CONTEXT ( 'NONE', #102, 'mechanical' ) ;
#82 = CIRCLE ( 'NONE', #137, 8.000000000000000000 ) ;
#83 = PERSON_AND_ORGANIZATION_ROLE ( 'design_owner' ) ;
#84 = DIRECTION ( 'NONE',  ( 0.0000000000000000000, 0.0000000000000000000, 1.000000000000000000 ) ) ;
#85 = DIRECTION ( 'NONE',  ( 1.000000000000000000, 0.0000000000000000000, 0.0000000000000000000 ) ) ;
#86 = SECURITY_CLASSIFICATION ( '', '', #160 ) ;
#87 = EDGE_LOOP ( 'NONE', ( #120 ) ) ;
#88 = CARTESIAN_POINT ( 'NONE',  ( 2.897929511239800306E-13, 7.499999999999992895, 82.99999999999998579 ) ) ;
#89 =( GEOMETRIC_REPRESENTATION_CONTEXT ( 3 ) GLOBAL_UNCERTAINTY_ASSIGNED_CONTEXT ( ( #136 ) ) GLOBAL_UNIT_ASSIGNED_CONTEXT ( ( #80, #6, #19 ) ) REPRESENTATION_CONTEXT ( 'NONE', 'WORKASPACE' ) );
#90 = PLANE ( 'NONE',  #180 ) ;
#91 = DIRECTION ( 'NONE',  ( -3.491481338843133355E-15, 1.224646799147353207E-16, -1.000000000000000000 ) ) ;
#92 = CARTESIAN_POINT ( 'NONE',  ( 2.880472104545584703E-13, 7.999999999999979572, 82.50000000000000000 ) ) ;
#93 = CIRCLE ( 'NONE', #11, 7.999999999999989342 ) ;
#94 = DIRECTION ( 'NONE',  ( 0.0000000000000000000, 1.000000000000000000, 0.0000000000000000000 ) ) ;
#95 = CIRCLE ( 'NONE', #169, 8.000000000000000000 ) ;
#96 = CALENDAR_DATE ( 2021, 15, 11 ) ;
#97 = PERSON_AND_ORGANIZATION ( #170, #115 ) ;
#98 = PERSON_AND_ORGANIZATION ( #170, #115 ) ;
#99 = ORIENTED_EDGE ( 'NONE', *, *, #40, .T. ) ;
#100 = EDGE_LOOP ( 'NONE', ( #57 ) ) ;
#101 = ORIENTED_EDGE ( 'NONE', *, *, #40, .F. ) ;
#102 = APPLICATION_CONTEXT ( 'configuration controlled 3d designs of mechanical parts and assemblies' ) ;
#103 = FACE_OUTER_BOUND ( 'NONE', #25, .T. ) ;
#104 = APPROVAL ( #116, 'UNSPECIFIED' ) ;
#105 = VERTEX_POINT ( 'NONE', #16 ) ;
#106 = AXIS2_PLACEMENT_3D ( 'NONE', #140, #111, #154 ) ;
#107 = DIRECTION ( 'NONE',  ( 4.275831445896958607E-31, 1.000000000000000000, 1.224646799147353207E-16 ) ) ;
#108 = CARTESIAN_POINT ( 'NONE',  ( 2.897929511239800306E-13, 1.755779833658433324E-30, 82.99999999999998579 ) ) ;
#109 = MANIFOLD_SOLID_BREP ( 'Corps-Déplacer/Copier1[1]', #70 ) ;
#110 = ADVANCED_FACE ( 'NONE', ( #192 ), #7, .F. ) ;
#111 = DIRECTION ( 'NONE',  ( -3.491481338843133355E-15, 1.224646799147353207E-16, -1.000000000000000000 ) ) ;
#112 = APPROVAL_PERSON_ORGANIZATION ( #97, #61, #114 ) ;
#113 = DIRECTION ( 'NONE',  ( 0.0000000000000000000, 1.000000000000000000, 0.0000000000000000000 ) ) ;
#114 = APPROVAL_ROLE ( '' ) ;
#115 = ORGANIZATION ( 'UNSPECIFIED', 'UNSPECIFIED', '' ) ;
#116 = APPROVAL_STATUS ( 'not_yet_approved' ) ;
#117 = SHAPE_DEFINITION_REPRESENTATION ( #178, #51 ) ;
#118 = PERSON_AND_ORGANIZATION_ROLE ( 'creator' ) ;
#119 = EDGE_LOOP ( 'NONE', ( #167 ) ) ;
#120 = ORIENTED_EDGE ( 'NONE', *, *, #74, .T. ) ;
#121 = ORIENTED_EDGE ( 'NONE', *, *, #59, .F. ) ;
#122 = DIRECTION ( 'NONE',  ( 0.0000000000000000000, 1.000000000000000000, 0.0000000000000000000 ) ) ;
#123 = AXIS2_PLACEMENT_3D ( 'NONE', #79, #194, #65 ) ;
#124 = CARTESIAN_POINT ( 'NONE',  ( 6.842277657836020854E-46, 8.000000000000000000, 0.0000000000000000000 ) ) ;
#125 = APPLICATION_CONTEXT ( 'configuration controlled 3d designs of mechanical parts and assemblies' ) ;
#126 = DIRECTION ( 'NONE',  ( -3.491481338843133355E-15, 1.224646799147353207E-16, -1.000000000000000000 ) ) ;
#127 = DIRECTION ( 'NONE',  ( 0.0000000000000000000, 1.000000000000000000, 0.0000000000000000000 ) ) ;
#128 = PRODUCT ( '334969', '334969', '', ( #81 ) ) ;
#129 = CYLINDRICAL_SURFACE ( 'NONE', #123, 8.000000000000000000 ) ;
#130 = ADVANCED_FACE ( 'NONE', ( #28 ), #90, .F. ) ;
#131 = PERSON_AND_ORGANIZATION ( #170, #115 ) ;
#132 = DATE_AND_TIME ( #67, #73 ) ;
#133 = AXIS2_PLACEMENT_3D ( 'NONE', #46, #91, #3 ) ;
#134 = CC_DESIGN_PERSON_AND_ORGANIZATION_ASSIGNMENT ( #52, #83, ( #128 ) ) ;
#135 = EDGE_LOOP ( 'NONE', ( #1 ) ) ;
#136 = UNCERTAINTY_MEASURE_WITH_UNIT (LENGTH_MEASURE( 1.000000000000000082E-05 ), #80, 'distance_accuracy_value', 'NONE');
#137 = AXIS2_PLACEMENT_3D ( 'NONE', #78, #144, #113 ) ;
#138 = CARTESIAN_POINT ( 'NONE',  ( 2.897929511239800306E-13, -1.016456843292302992E-14, 82.99999999999998579 ) ) ;
#139 = PRODUCT_RELATED_PRODUCT_CATEGORY ( 'detail', '', ( #128 ) ) ;
#140 = CARTESIAN_POINT ( 'NONE',  ( 0.0000000000000000000, 0.0000000000000000000, 0.0000000000000000000 ) ) ;
#141 = VERTEX_POINT ( 'NONE', #4 ) ;
#142 = CC_DESIGN_DATE_AND_TIME_ASSIGNMENT ( #38, #158, ( #37 ) ) ;
#143 = FACE_OUTER_BOUND ( 'NONE', #100, .T. ) ;
#144 = DIRECTION ( 'NONE',  ( -3.491481338843133355E-15, 1.224646799147353207E-16, -1.000000000000000000 ) ) ;
#145 = ADVANCED_FACE ( 'NONE', ( #43, #143 ), #5, .T. ) ;
#146 = APPLICATION_PROTOCOL_DEFINITION ( 'international standard', 'config_control_design', 1994, #125 ) ;
#147 = DATE_AND_TIME ( #161, #191 ) ;
#148 = CIRCLE ( 'NONE', #174, 7.500000000000003553 ) ;
#149 = CC_DESIGN_APPROVAL ( #104, ( #37 ) ) ;
#150 = CALENDAR_DATE ( 2021, 15, 11 ) ;
#151 = EDGE_LOOP ( 'NONE', ( #101 ) ) ;
#152 = AXIS2_PLACEMENT_3D ( 'NONE', #171, #60, #127 ) ;
#153 = DIRECTION ( 'NONE',  ( 0.0000000000000000000, 1.000000000000000000, 0.0000000000000000000 ) ) ;
#154 = DIRECTION ( 'NONE',  ( 4.275831445896957731E-31, 1.000000000000000000, 1.224646799147353207E-16 ) ) ;
#155 = CARTESIAN_POINT ( 'NONE',  ( 1.047444401652940007E-13, 5.999039130647424958E-32, 30.00000000000000000 ) ) ;
#156 = DIRECTION ( 'NONE',  ( 3.491481338843133355E-15, -1.224646799147353207E-16, 1.000000000000000000 ) ) ;
#157 = VERTEX_POINT ( 'NONE', #88 ) ;
#158 = DATE_TIME_ROLE ( 'creation_date' ) ;
#159 = LOCAL_TIME ( 9, 6, 7.000000000000000000, #20 ) ;
#160 = SECURITY_CLASSIFICATION_LEVEL ( 'unclassified' ) ;
#161 = CALENDAR_DATE ( 2021, 15, 11 ) ;
#162 = APPROVAL_STATUS ( 'not_yet_approved' ) ;
#163 = LOCAL_TIME ( 9, 6, 7.000000000000000000, #9 ) ;
#164 = ORIENTED_EDGE ( 'NONE', *, *, #59, .T. ) ;
#165 = EDGE_CURVE ( 'NONE', #141, #141, #82, .T. ) ;
#166 = EDGE_LOOP ( 'NONE', ( #99 ) ) ;
#167 = ORIENTED_EDGE ( 'NONE', *, *, #14, .T. ) ;
#168 = FACE_OUTER_BOUND ( 'NONE', #201, .T. ) ;
#169 = AXIS2_PLACEMENT_3D ( 'NONE', #45, #32, #94 ) ;
#170 = PERSON ( 'UNSPECIFIED', 'UNSPECIFIED', 'UNSPECIFIED', ('UNSPECIFIED'), ('UNSPECIFIED'), ('UNSPECIFIED') ) ;
#171 = CARTESIAN_POINT ( 'NONE',  ( 2.880472104545584703E-13, -1.010333609296566392E-14, 82.50000000000000000 ) ) ;
#172 = FACE_OUTER_BOUND ( 'NONE', #42, .T. ) ;
#173 = DIRECTION ( 'NONE',  ( 3.491481338843133355E-15, -1.224646799147353207E-16, 1.000000000000000000 ) ) ;
#174 = AXIS2_PLACEMENT_3D ( 'NONE', #138, #56, #153 ) ;
#175 = PRODUCT_DEFINITION_FORMATION_WITH_SPECIFIED_SOURCE ( 'ANY', '', #128, .NOT_KNOWN. ) ;
#176 = CARTESIAN_POINT ( 'NONE',  ( 1.047444401652940007E-13, 5.999039130647424958E-32, 30.00000000000000000 ) ) ;
#177 = COORDINATED_UNIVERSAL_TIME_OFFSET ( 1, 0, .AHEAD. ) ;
#178 = PRODUCT_DEFINITION_SHAPE ( 'NONE', 'NONE',  #37 ) ;
#179 = CALENDAR_DATE ( 2021, 15, 11 ) ;
#180 = AXIS2_PLACEMENT_3D ( 'NONE', #176, #156, #27 ) ;
#181 = ADVANCED_FACE ( 'NONE', ( #189 ), #190, .T. ) ;
#182 = PERSON_AND_ORGANIZATION ( #170, #115 ) ;
#183 = MANIFOLD_SOLID_BREP ( 'Corps-Déplacer/Copier1[2]', #186 ) ;
#184 = APPROVAL_ROLE ( '' ) ;
#185 = EDGE_LOOP ( 'NONE', ( #72 ) ) ;
#186 = CLOSED_SHELL ( 'NONE', ( #64, #77, #181 ) ) ;
#187 = FACE_BOUND ( 'NONE', #166, .T. ) ;
#188 = CC_DESIGN_PERSON_AND_ORGANIZATION_ASSIGNMENT ( #182, #54, ( #37 ) ) ;
#189 = FACE_OUTER_BOUND ( 'NONE', #185, .T. ) ;
#190 = PLANE ( 'NONE',  #62 ) ;
#191 = LOCAL_TIME ( 9, 6, 7.000000000000000000, #177 ) ;
#192 = FACE_OUTER_BOUND ( 'NONE', #151, .T. ) ;
#193 = CARTESIAN_POINT ( 'NONE',  ( -1.710332578358783092E-30, 5.999039130647430431E-32, -4.898587196589412829E-16 ) ) ;
#194 = DIRECTION ( 'NONE',  ( -3.491481338843133355E-15, 1.224646799147353207E-16, -1.000000000000000000 ) ) ;
#195 = APPROVAL_PERSON_ORGANIZATION ( #36, #104, #184 ) ;
#196 = DATE_AND_TIME ( #150, #163 ) ;
#197 = COORDINATED_UNIVERSAL_TIME_OFFSET ( 1, 0, .AHEAD. ) ;
#198 = COORDINATED_UNIVERSAL_TIME_OFFSET ( 1, 0, .AHEAD. ) ;
#199 = PERSON_AND_ORGANIZATION ( #170, #115 ) ;
#200 = APPROVAL_DATE_TIME ( #132, #104 ) ;
#201 = EDGE_LOOP ( 'NONE', ( #121 ) ) ;
#202 = CIRCLE ( 'NONE', #133, 8.000000000000000000 ) ;
#203 = APPROVAL ( #66, 'UNSPECIFIED' ) ;
ENDSEC;
END-ISO-10303-21;
