ISO-10303-21;
HEADER;
FILE_DESCRIPTION (( 'STEP AP203' ),
    '1' );
FILE_NAME ('334968.step',
    '2021-11-15T08:06:07',
    ( '' ),
    ( '' ),
    'SwSTEP 2.0',
    'SolidWorks 2019',
    '' );
FILE_SCHEMA (( 'CONFIG_CONTROL_DESIGN' ));
ENDSEC;

DATA;
#1 = DIRECTION ( 'NONE',  ( 1.000000000000000000, 0.0000000000000000000, 0.0000000000000000000 ) ) ;
#2 = AXIS2_PLACEMENT_3D ( 'NONE', #24, #11, #101 ) ;
#3 = COORDINATED_UNIVERSAL_TIME_OFFSET ( 1, 0, .AHEAD. ) ;
#4 = EDGE_LOOP ( 'NONE', ( #141 ) ) ;
#5 = PLANE ( 'NONE',  #2 ) ;
#6 = DIRECTION ( 'NONE',  ( -4.275831445896958607E-31, -1.000000000000000000, -1.224646799147353207E-16 ) ) ;
#7 = CARTESIAN_POINT ( 'NONE',  ( 9.077851480992146724E-14, 5.999999999999996447, 26.00000000000000000 ) ) ;
#8 = CC_DESIGN_APPROVAL ( #191, ( #90 ) ) ;
#9 = FACE_OUTER_BOUND ( 'NONE', #70, .T. ) ;
#10 = APPROVAL ( #173, 'UNSPECIFIED' ) ;
#11 = DIRECTION ( 'NONE',  ( -3.491481338843133355E-15, 1.224646799147353207E-16, -1.000000000000000000 ) ) ;
#12 = CLOSED_SHELL ( 'NONE', ( #16, #45, #110 ) ) ;
#13 = APPROVAL_DATE_TIME ( #66, #191 ) ;
#14 = CALENDAR_DATE ( 2021, 15, 11 ) ;
#15 = AXIS2_PLACEMENT_3D ( 'NONE', #73, #198, #56 ) ;
#16 = ADVANCED_FACE ( 'NONE', ( #41 ), #91, .T. ) ;
#17 = APPLICATION_PROTOCOL_DEFINITION ( 'international standard', 'config_control_design', 1994, #80 ) ;
#18 = DATE_AND_TIME ( #14, #53 ) ;
#19 = CALENDAR_DATE ( 2021, 15, 11 ) ;
#20 = LOCAL_TIME ( 9, 6, 7.000000000000000000, #51 ) ;
#21 = AXIS2_PLACEMENT_3D ( 'NONE', #100, #164, #133 ) ;
#22 = ADVANCED_FACE ( 'NONE', ( #46, #59 ), #94, .T. ) ;
#23 = PERSON ( 'UNSPECIFIED', 'UNSPECIFIED', 'UNSPECIFIED', ('UNSPECIFIED'), ('UNSPECIFIED'), ('UNSPECIFIED') ) ;
#24 = CARTESIAN_POINT ( 'NONE',  ( 2.583696190743918430E-13, 4.124339402320105685E-32, 74.00000000000000000 ) ) ;
#25 = DIRECTION ( 'NONE',  ( 3.491481338843133355E-15, -1.224646799147353207E-16, 1.000000000000000000 ) ) ;
#26 = CARTESIAN_POINT ( 'NONE',  ( 2.566238784049703837E-13, 5.999999999999991118, 73.50000000000002842 ) ) ;
#27 = CIRCLE ( 'NONE', #150, 6.000000000000000000 ) ;
#28 = DIRECTION ( 'NONE',  ( 3.491481338843133355E-15, -1.224646799147353207E-16, 1.000000000000000000 ) ) ;
#29 = CYLINDRICAL_SURFACE ( 'NONE', #146, 6.000000000000000000 ) ;
#30 = APPROVAL_ROLE ( '' ) ;
#31 =( LENGTH_UNIT ( ) NAMED_UNIT ( * ) SI_UNIT ( .MILLI., .METRE. ) );
#32 = AXIS2_PLACEMENT_3D ( 'NONE', #162, #25, #6 ) ;
#33 = PERSON_AND_ORGANIZATION ( #23, #178 ) ;
#34 = ADVANCED_BREP_SHAPE_REPRESENTATION ( '334968', ( #123, #118, #170 ), #50 ) ;
#35 = COORDINATED_UNIVERSAL_TIME_OFFSET ( 1, 0, .AHEAD. ) ;
#36 = PERSON_AND_ORGANIZATION ( #23, #178 ) ;
#37 = EDGE_LOOP ( 'NONE', ( #112 ) ) ;
#38 = CC_DESIGN_PERSON_AND_ORGANIZATION_ASSIGNMENT ( #33, #157, ( #90 ) ) ;
#39 = CIRCLE ( 'NONE', #132, 6.000000000000000000 ) ;
#40 = EDGE_LOOP ( 'NONE', ( #55 ) ) ;
#41 = FACE_OUTER_BOUND ( 'NONE', #97, .T. ) ;
#42 = CARTESIAN_POINT ( 'NONE',  ( 9.077851480992146724E-14, -3.184081677783118191E-15, 26.00000000000000000 ) ) ;
#43 = PLANE ( 'NONE',  #111 ) ;
#44 = CLOSED_SHELL ( 'NONE', ( #140, #83, #22, #69 ) ) ;
#45 = ADVANCED_FACE ( 'NONE', ( #88, #9 ), #29, .T. ) ;
#46 = FACE_BOUND ( 'NONE', #72, .T. ) ;
#47 = VERTEX_POINT ( 'NONE', #7 ) ;
#48 = PERSON_AND_ORGANIZATION ( #23, #178 ) ;
#49 = CC_DESIGN_PERSON_AND_ORGANIZATION_ASSIGNMENT ( #122, #156, ( #166 ) ) ;
#50 =( GEOMETRIC_REPRESENTATION_CONTEXT ( 3 ) GLOBAL_UNCERTAINTY_ASSIGNED_CONTEXT ( ( #135 ) ) GLOBAL_UNIT_ASSIGNED_CONTEXT ( ( #31, #105, #186 ) ) REPRESENTATION_CONTEXT ( 'NONE', 'WORKASPACE' ) );
#51 = COORDINATED_UNIVERSAL_TIME_OFFSET ( 1, 0, .AHEAD. ) ;
#52 = ORIENTED_EDGE ( 'NONE', *, *, #182, .T. ) ;
#53 = LOCAL_TIME ( 9, 6, 7.000000000000000000, #63 ) ;
#54 = EDGE_CURVE ( 'NONE', #61, #61, #115, .T. ) ;
#55 = ORIENTED_EDGE ( 'NONE', *, *, #106, .T. ) ;
#56 = DIRECTION ( 'NONE',  ( 4.275831445896959482E-31, 1.000000000000000000, 1.224646799147353207E-16 ) ) ;
#57 = FACE_OUTER_BOUND ( 'NONE', #68, .T. ) ;
#58 = AXIS2_PLACEMENT_3D ( 'NONE', #113, #86, #151 ) ;
#59 = FACE_OUTER_BOUND ( 'NONE', #4, .T. ) ;
#60 = DIRECTION ( 'NONE',  ( -3.491481338843133355E-15, 1.224646799147353207E-16, -1.000000000000000000 ) ) ;
#61 = VERTEX_POINT ( 'NONE', #117 ) ;
#62 = PRODUCT ( '334968', '334968', '', ( #155 ) ) ;
#63 = COORDINATED_UNIVERSAL_TIME_OFFSET ( 1, 0, .AHEAD. ) ;
#64 = APPROVAL_STATUS ( 'not_yet_approved' ) ;
#65 = PERSON_AND_ORGANIZATION_ROLE ( 'design_owner' ) ;
#66 = DATE_AND_TIME ( #153, #175 ) ;
#67 = SHAPE_DEFINITION_REPRESENTATION ( #152, #34 ) ;
#68 = EDGE_LOOP ( 'NONE', ( #145 ) ) ;
#69 = ADVANCED_FACE ( 'NONE', ( #57 ), #5, .F. ) ;
#70 = EDGE_LOOP ( 'NONE', ( #128 ) ) ;
#71 = CC_DESIGN_DATE_AND_TIME_ASSIGNMENT ( #171, #187, ( #129 ) ) ;
#72 = EDGE_LOOP ( 'NONE', ( #179 ) ) ;
#73 = CARTESIAN_POINT ( 'NONE',  ( 0.0000000000000000000, 0.0000000000000000000, 0.0000000000000000000 ) ) ;
#74 = DIRECTION ( 'NONE',  ( -3.491481338843133355E-15, 1.224646799147353207E-16, -1.000000000000000000 ) ) ;
#75 = CC_DESIGN_PERSON_AND_ORGANIZATION_ASSIGNMENT ( #174, #79, ( #129 ) ) ;
#76 = DIRECTION ( 'NONE',  ( -3.491481338843133355E-15, 1.224646799147353207E-16, -1.000000000000000000 ) ) ;
#77 = CARTESIAN_POINT ( 'NONE',  ( -1.282749433769087757E-30, 4.499279347985572824E-32, -3.673940397442059868E-16 ) ) ;
#78 = DATE_AND_TIME ( #19, #125 ) ;
#79 = PERSON_AND_ORGANIZATION_ROLE ( 'creator' ) ;
#80 = APPLICATION_CONTEXT ( 'configuration controlled 3d designs of mechanical parts and assemblies' ) ;
#81 = CC_DESIGN_PERSON_AND_ORGANIZATION_ASSIGNMENT ( #124, #65, ( #62 ) ) ;
#82 = APPROVAL_PERSON_ORGANIZATION ( #169, #10, #93 ) ;
#83 = ADVANCED_FACE ( 'NONE', ( #99, #98 ), #181, .T. ) ;
#84 = EDGE_LOOP ( 'NONE', ( #52 ) ) ;
#85 = APPROVAL_PERSON_ORGANIZATION ( #48, #172, #126 ) ;
#86 = DIRECTION ( 'NONE',  ( -3.491481338843133355E-15, 1.224646799147353207E-16, -1.000000000000000000 ) ) ;
#87 = DIRECTION ( 'NONE',  ( -4.275831445896958607E-31, -1.000000000000000000, -1.224646799147353207E-16 ) ) ;
#88 = FACE_OUTER_BOUND ( 'NONE', #40, .T. ) ;
#89 = APPLICATION_CONTEXT ( 'configuration controlled 3d designs of mechanical parts and assemblies' ) ;
#90 = PRODUCT_DEFINITION_FORMATION_WITH_SPECIFIED_SOURCE ( 'ANY', '', #62, .NOT_KNOWN. ) ;
#91 = PLANE ( 'NONE',  #160 ) ;
#92 = CARTESIAN_POINT ( 'NONE',  ( 0.0000000000000000000, 0.0000000000000000000, 0.0000000000000000000 ) ) ;
#93 = APPROVAL_ROLE ( '' ) ;
#94 = CONICAL_SURFACE ( 'NONE', #192, 6.000000000000000000, 0.7853981633974621568 ) ;
#95 = SECURITY_CLASSIFICATION_LEVEL ( 'unclassified' ) ;
#96 = LOCAL_TIME ( 9, 6, 7.000000000000000000, #139 ) ;
#97 = EDGE_LOOP ( 'NONE', ( #177 ) ) ;
#98 = FACE_OUTER_BOUND ( 'NONE', #176, .T. ) ;
#99 = FACE_OUTER_BOUND ( 'NONE', #84, .T. ) ;
#100 = CARTESIAN_POINT ( 'NONE',  ( 2.583696190743918430E-13, -9.062386313690413585E-15, 74.00000000000000000 ) ) ;
#101 = DIRECTION ( 'NONE',  ( 4.275831445896958607E-31, 1.000000000000000000, 1.224646799147353207E-16 ) ) ;
#102 = CC_DESIGN_SECURITY_CLASSIFICATION ( #166, ( #90 ) ) ;
#103 = DIRECTION ( 'NONE',  ( 0.0000000000000000000, 1.000000000000000000, 0.0000000000000000000 ) ) ;
#104 = DATE_TIME_ROLE ( 'classification_date' ) ;
#105 =( NAMED_UNIT ( * ) PLANE_ANGLE_UNIT ( ) SI_UNIT ( $, .RADIAN. ) );
#106 = EDGE_CURVE ( 'NONE', #47, #47, #27, .T. ) ;
#107 = APPROVAL_STATUS ( 'not_yet_approved' ) ;
#108 = EDGE_LOOP ( 'NONE', ( #159 ) ) ;
#109 = ORIENTED_EDGE ( 'NONE', *, *, #54, .F. ) ;
#110 = ADVANCED_FACE ( 'NONE', ( #194 ), #183, .T. ) ;
#111 = AXIS2_PLACEMENT_3D ( 'NONE', #165, #28, #87 ) ;
#112 = ORIENTED_EDGE ( 'NONE', *, *, #106, .F. ) ;
#113 = CARTESIAN_POINT ( 'NONE',  ( 2.566238784049703837E-13, -9.001153973733049167E-15, 73.50000000000002842 ) ) ;
#114 = DIRECTION ( 'NONE',  ( 4.275831445896959482E-31, 1.000000000000000000, 1.224646799147353207E-16 ) ) ;
#115 = CIRCLE ( 'NONE', #158, 6.000000000000000000 ) ;
#116 = CARTESIAN_POINT ( 'NONE',  ( 0.0000000000000000000, 6.000000000000000000, 0.0000000000000000000 ) ) ;
#117 = CARTESIAN_POINT ( 'NONE',  ( 9.077851480992146724E-14, 5.999999999999996447, 26.00000000000000000 ) ) ;
#118 = MANIFOLD_SOLID_BREP ( 'Corps-Déplacer/Copier1[2]', #12 ) ;
#119 = CARTESIAN_POINT ( 'NONE',  ( 2.583696190743918430E-13, 5.500000000000005329, 74.00000000000000000 ) ) ;
#120 = APPROVAL_PERSON_ORGANIZATION ( #36, #191, #30 ) ;
#121 = CALENDAR_DATE ( 2021, 15, 11 ) ;
#122 = PERSON_AND_ORGANIZATION ( #23, #178 ) ;
#123 = MANIFOLD_SOLID_BREP ( 'Corps-Déplacer/Copier1[1]', #44 ) ;
#124 = PERSON_AND_ORGANIZATION ( #23, #178 ) ;
#125 = LOCAL_TIME ( 9, 6, 7.000000000000000000, #35 ) ;
#126 = APPROVAL_ROLE ( '' ) ;
#127 = APPLICATION_PROTOCOL_DEFINITION ( 'international standard', 'config_control_design', 1994, #89 ) ;
#128 = ORIENTED_EDGE ( 'NONE', *, *, #144, .F. ) ;
#129 = PRODUCT_DEFINITION ( 'UNKNOWN', '', #90, #168 ) ;
#130 = CARTESIAN_POINT ( 'NONE',  ( 9.077851480992146724E-14, -3.184081677783118191E-15, 26.00000000000000000 ) ) ;
#131 = VERTEX_POINT ( 'NONE', #119 ) ;
#132 = AXIS2_PLACEMENT_3D ( 'NONE', #161, #76, #148 ) ;
#133 = DIRECTION ( 'NONE',  ( 0.0000000000000000000, 1.000000000000000000, 0.0000000000000000000 ) ) ;
#134 = CC_DESIGN_PERSON_AND_ORGANIZATION_ASSIGNMENT ( #137, #201, ( #90 ) ) ;
#135 = UNCERTAINTY_MEASURE_WITH_UNIT (LENGTH_MEASURE( 1.000000000000000082E-05 ), #31, 'distance_accuracy_value', 'NONE');
#136 = DIRECTION ( 'NONE',  ( 0.0000000000000000000, 1.000000000000000000, 0.0000000000000000000 ) ) ;
#137 = PERSON_AND_ORGANIZATION ( #23, #178 ) ;
#138 = APPROVAL_DATE_TIME ( #78, #10 ) ;
#139 = COORDINATED_UNIVERSAL_TIME_OFFSET ( 1, 0, .AHEAD. ) ;
#140 = ADVANCED_FACE ( 'NONE', ( #149 ), #43, .F. ) ;
#141 = ORIENTED_EDGE ( 'NONE', *, *, #182, .F. ) ;
#142 = EDGE_CURVE ( 'NONE', #131, #131, #196, .T. ) ;
#143 = CIRCLE ( 'NONE', #58, 6.000000000000000000 ) ;
#144 = EDGE_CURVE ( 'NONE', #197, #197, #39, .T. ) ;
#145 = ORIENTED_EDGE ( 'NONE', *, *, #142, .F. ) ;
#146 = AXIS2_PLACEMENT_3D ( 'NONE', #92, #167, #114 ) ;
#147 = DIRECTION ( 'NONE',  ( 4.275831445896958607E-31, 1.000000000000000000, 1.224646799147353207E-16 ) ) ;
#148 = DIRECTION ( 'NONE',  ( 4.275831445896959482E-31, 1.000000000000000000, 1.224646799147353207E-16 ) ) ;
#149 = FACE_OUTER_BOUND ( 'NONE', #108, .T. ) ;
#150 = AXIS2_PLACEMENT_3D ( 'NONE', #130, #180, #199 ) ;
#151 = DIRECTION ( 'NONE',  ( 0.0000000000000000000, 1.000000000000000000, 0.0000000000000000000 ) ) ;
#152 = PRODUCT_DEFINITION_SHAPE ( 'NONE', 'NONE',  #129 ) ;
#153 = CALENDAR_DATE ( 2021, 15, 11 ) ;
#154 = DIRECTION ( 'NONE',  ( 0.0000000000000000000, 0.0000000000000000000, 1.000000000000000000 ) ) ;
#155 = MECHANICAL_CONTEXT ( 'NONE', #80, 'mechanical' ) ;
#156 = PERSON_AND_ORGANIZATION_ROLE ( 'classification_officer' ) ;
#157 = PERSON_AND_ORGANIZATION_ROLE ( 'design_supplier' ) ;
#158 = AXIS2_PLACEMENT_3D ( 'NONE', #42, #195, #136 ) ;
#159 = ORIENTED_EDGE ( 'NONE', *, *, #54, .T. ) ;
#160 = AXIS2_PLACEMENT_3D ( 'NONE', #77, #60, #147 ) ;
#161 = CARTESIAN_POINT ( 'NONE',  ( -2.565498867538175514E-30, 8.998558695971145647E-32, -7.347880794884119736E-16 ) ) ;
#162 = CARTESIAN_POINT ( 'NONE',  ( 9.077851480992146724E-14, 4.499279347985567350E-32, 26.00000000000000000 ) ) ;
#163 = PRODUCT_RELATED_PRODUCT_CATEGORY ( 'detail', '', ( #62 ) ) ;
#164 = DIRECTION ( 'NONE',  ( -3.491481338843133355E-15, 1.224646799147353207E-16, -1.000000000000000000 ) ) ;
#165 = CARTESIAN_POINT ( 'NONE',  ( 9.077851480992146724E-14, 4.499279347985567350E-32, 26.00000000000000000 ) ) ;
#166 = SECURITY_CLASSIFICATION ( '', '', #95 ) ;
#167 = DIRECTION ( 'NONE',  ( -3.491481338843133355E-15, 1.224646799147353207E-16, -1.000000000000000000 ) ) ;
#168 = DESIGN_CONTEXT ( 'detailed design', #89, 'design' ) ;
#169 = PERSON_AND_ORGANIZATION ( #23, #178 ) ;
#170 = AXIS2_PLACEMENT_3D ( 'NONE', #200, #154, #1 ) ;
#171 = DATE_AND_TIME ( #202, #96 ) ;
#172 = APPROVAL ( #107, 'UNSPECIFIED' ) ;
#173 = APPROVAL_STATUS ( 'not_yet_approved' ) ;
#174 = PERSON_AND_ORGANIZATION ( #23, #178 ) ;
#175 = LOCAL_TIME ( 9, 6, 7.000000000000000000, #3 ) ;
#176 = EDGE_LOOP ( 'NONE', ( #109 ) ) ;
#177 = ORIENTED_EDGE ( 'NONE', *, *, #144, .T. ) ;
#178 = ORGANIZATION ( 'UNSPECIFIED', 'UNSPECIFIED', '' ) ;
#179 = ORIENTED_EDGE ( 'NONE', *, *, #142, .T. ) ;
#180 = DIRECTION ( 'NONE',  ( -3.491481338843133355E-15, 1.224646799147353207E-16, -1.000000000000000000 ) ) ;
#181 = CYLINDRICAL_SURFACE ( 'NONE', #15, 6.000000000000000000 ) ;
#182 = EDGE_CURVE ( 'NONE', #184, #184, #143, .T. ) ;
#183 = PLANE ( 'NONE',  #32 ) ;
#184 = VERTEX_POINT ( 'NONE', #26 ) ;
#185 = CARTESIAN_POINT ( 'NONE',  ( 2.566238784049703837E-13, -9.001153973733049167E-15, 73.50000000000002842 ) ) ;
#186 =( NAMED_UNIT ( * ) SI_UNIT ( $, .STERADIAN. ) SOLID_ANGLE_UNIT ( ) );
#187 = DATE_TIME_ROLE ( 'creation_date' ) ;
#188 = CC_DESIGN_APPROVAL ( #172, ( #129 ) ) ;
#189 = APPROVAL_DATE_TIME ( #18, #172 ) ;
#190 = DATE_AND_TIME ( #121, #20 ) ;
#191 = APPROVAL ( #64, 'UNSPECIFIED' ) ;
#192 = AXIS2_PLACEMENT_3D ( 'NONE', #185, #74, #103 ) ;
#193 = CC_DESIGN_APPROVAL ( #10, ( #166 ) ) ;
#194 = FACE_OUTER_BOUND ( 'NONE', #37, .T. ) ;
#195 = DIRECTION ( 'NONE',  ( -3.491481338843133355E-15, 1.224646799147353207E-16, -1.000000000000000000 ) ) ;
#196 = CIRCLE ( 'NONE', #21, 5.500000000000013323 ) ;
#197 = VERTEX_POINT ( 'NONE', #116 ) ;
#198 = DIRECTION ( 'NONE',  ( -3.491481338843133355E-15, 1.224646799147353207E-16, -1.000000000000000000 ) ) ;
#199 = DIRECTION ( 'NONE',  ( 0.0000000000000000000, 1.000000000000000000, 0.0000000000000000000 ) ) ;
#200 = CARTESIAN_POINT ( 'NONE',  ( 0.0000000000000000000, 0.0000000000000000000, 0.0000000000000000000 ) ) ;
#201 = PERSON_AND_ORGANIZATION_ROLE ( 'creator' ) ;
#202 = CALENDAR_DATE ( 2021, 15, 11 ) ;
#203 = CC_DESIGN_DATE_AND_TIME_ASSIGNMENT ( #190, #104, ( #166 ) ) ;
ENDSEC;
END-ISO-10303-21;
