ISO-10303-21;
HEADER;
FILE_DESCRIPTION (( 'STEP AP203' ),
    '1' );
FILE_NAME ('334967.step',
    '2021-11-15T08:06:06',
    ( '' ),
    ( '' ),
    'SwSTEP 2.0',
    'SolidWorks 2019',
    '' );
FILE_SCHEMA (( 'CONFIG_CONTROL_DESIGN' ));
ENDSEC;

DATA;
#1 = CARTESIAN_POINT ( 'NONE',  ( 7.681258945454893382E-14, -2.694222958124176809E-15, 22.00000000000000000 ) ) ;
#2 = PRODUCT_DEFINITION ( 'UNKNOWN', '', #73, #79 ) ;
#3 = AXIS2_PLACEMENT_3D ( 'NONE', #16, #61, #191 ) ;
#4 = CARTESIAN_POINT ( 'NONE',  ( 0.0000000000000000000, 0.0000000000000000000, 0.0000000000000000000 ) ) ;
#5 = DIRECTION ( 'NONE',  ( -3.491481338843133355E-15, 1.224646799147353207E-16, -1.000000000000000000 ) ) ;
#6 = CARTESIAN_POINT ( 'NONE',  ( -2.137915722948479128E-30, 7.498798913309288039E-32, -6.123233995736766282E-16 ) ) ;
#7 = PERSON_AND_ORGANIZATION ( #62, #80 ) ;
#8 = AXIS2_PLACEMENT_3D ( 'NONE', #6, #160, #31 ) ;
#9 = VERTEX_POINT ( 'NONE', #148 ) ;
#10 = APPROVAL_STATUS ( 'not_yet_approved' ) ;
#11 = EDGE_CURVE ( 'NONE', #67, #67, #167, .T. ) ;
#12 = PERSON_AND_ORGANIZATION_ROLE ( 'design_supplier' ) ;
#13 = EDGE_LOOP ( 'NONE', ( #98 ) ) ;
#14 = EDGE_LOOP ( 'NONE', ( #126 ) ) ;
#15 = CLOSED_SHELL ( 'NONE', ( #49, #143, #202 ) ) ;
#16 = CARTESIAN_POINT ( 'NONE',  ( 7.681258945454893382E-14, -2.694222958124176809E-15, 22.00000000000000000 ) ) ;
#17 = LOCAL_TIME ( 9, 6, 6.000000000000000000, #53 ) ;
#18 = FACE_OUTER_BOUND ( 'NONE', #111, .T. ) ;
#19 = CALENDAR_DATE ( 2021, 15, 11 ) ;
#20 = DIRECTION ( 'NONE',  ( -3.491481338843133355E-15, 1.224646799147353207E-16, -1.000000000000000000 ) ) ;
#21 = CARTESIAN_POINT ( 'NONE',  ( 0.0000000000000000000, 5.000000000000000000, 0.0000000000000000000 ) ) ;
#22 = CARTESIAN_POINT ( 'NONE',  ( 2.339292497024898969E-13, 4.499999999999990230, 66.99999999999998579 ) ) ;
#23 = CC_DESIGN_PERSON_AND_ORGANIZATION_ASSIGNMENT ( #164, #54, ( #73 ) ) ;
#24 = APPROVAL_ROLE ( '' ) ;
#25 = APPROVAL_ROLE ( '' ) ;
#26 = AXIS2_PLACEMENT_3D ( 'NONE', #27, #94, #144 ) ;
#27 = CARTESIAN_POINT ( 'NONE',  ( 2.321835090330683366E-13, -8.143901214329899974E-15, 66.50000000000000000 ) ) ;
#28 = ORIENTED_EDGE ( 'NONE', *, *, #83, .F. ) ;
#29 = APPLICATION_CONTEXT ( 'configuration controlled 3d designs of mechanical parts and assemblies' ) ;
#30 = PRODUCT ( '334967', '334967', '', ( #72 ) ) ;
#31 = DIRECTION ( 'NONE',  ( 4.275831445896958607E-31, 1.000000000000000000, 1.224646799147353207E-16 ) ) ;
#32 = LOCAL_TIME ( 9, 6, 6.000000000000000000, #76 ) ;
#33 = PLANE ( 'NONE',  #171 ) ;
#34 = CARTESIAN_POINT ( 'NONE',  ( 7.681258945454893382E-14, 3.749399456654640188E-32, 22.00000000000000000 ) ) ;
#35 = CARTESIAN_POINT ( 'NONE',  ( 0.0000000000000000000, 0.0000000000000000000, 0.0000000000000000000 ) ) ;
#36 = DIRECTION ( 'NONE',  ( 0.0000000000000000000, 1.000000000000000000, 0.0000000000000000000 ) ) ;
#37 = CALENDAR_DATE ( 2021, 15, 11 ) ;
#38 =( LENGTH_UNIT ( ) NAMED_UNIT ( * ) SI_UNIT ( .MILLI., .METRE. ) );
#39 = CIRCLE ( 'NONE', #26, 4.999999999999987566 ) ;
#40 = VERTEX_POINT ( 'NONE', #22 ) ;
#41 = APPROVAL_DATE_TIME ( #186, #46 ) ;
#42 = DATE_TIME_ROLE ( 'classification_date' ) ;
#43 = CC_DESIGN_APPROVAL ( #46, ( #183 ) ) ;
#44 = ORIENTED_EDGE ( 'NONE', *, *, #11, .T. ) ;
#45 = AXIS2_PLACEMENT_3D ( 'NONE', #109, #129, #81 ) ;
#46 = APPROVAL ( #203, 'UNSPECIFIED' ) ;
#47 = ORIENTED_EDGE ( 'NONE', *, *, #175, .T. ) ;
#48 = PLANE ( 'NONE',  #93 ) ;
#49 = ADVANCED_FACE ( 'NONE', ( #78 ), #188, .T. ) ;
#50 = DIRECTION ( 'NONE',  ( -4.275831445896958607E-31, -1.000000000000000000, -1.224646799147353207E-16 ) ) ;
#51 = APPLICATION_PROTOCOL_DEFINITION ( 'international standard', 'config_control_design', 1994, #29 ) ;
#52 = DIRECTION ( 'NONE',  ( -3.491481338843133355E-15, 1.224646799147353207E-16, -1.000000000000000000 ) ) ;
#53 = COORDINATED_UNIVERSAL_TIME_OFFSET ( 1, 0, .AHEAD. ) ;
#54 = PERSON_AND_ORGANIZATION_ROLE ( 'creator' ) ;
#55 = AXIS2_PLACEMENT_3D ( 'NONE', #84, #52, #162 ) ;
#56 = COORDINATED_UNIVERSAL_TIME_OFFSET ( 1, 0, .AHEAD. ) ;
#57 = CALENDAR_DATE ( 2021, 15, 11 ) ;
#58 = APPROVAL_PERSON_ORGANIZATION ( #107, #46, #25 ) ;
#59 = APPROVAL ( #10, 'UNSPECIFIED' ) ;
#60 = PERSON_AND_ORGANIZATION_ROLE ( 'classification_officer' ) ;
#61 = DIRECTION ( 'NONE',  ( -3.491481338843133355E-15, 1.224646799147353207E-16, -1.000000000000000000 ) ) ;
#62 = PERSON ( 'UNSPECIFIED', 'UNSPECIFIED', 'UNSPECIFIED', ('UNSPECIFIED'), ('UNSPECIFIED'), ('UNSPECIFIED') ) ;
#63 = CC_DESIGN_APPROVAL ( #59, ( #73 ) ) ;
#64 = AXIS2_PLACEMENT_3D ( 'NONE', #1, #190, #99 ) ;
#65 = FACE_OUTER_BOUND ( 'NONE', #13, .T. ) ;
#66 = DIRECTION ( 'NONE',  ( 4.275831445896959482E-31, 1.000000000000000000, 1.224646799147353207E-16 ) ) ;
#67 = VERTEX_POINT ( 'NONE', #163 ) ;
#68 = DIRECTION ( 'NONE',  ( 4.275831445896958607E-31, 1.000000000000000000, 1.224646799147353207E-16 ) ) ;
#69 = APPROVAL_STATUS ( 'not_yet_approved' ) ;
#70 = CIRCLE ( 'NONE', #64, 5.000000000000000000 ) ;
#71 = APPLICATION_PROTOCOL_DEFINITION ( 'international standard', 'config_control_design', 1994, #165 ) ;
#72 = MECHANICAL_CONTEXT ( 'NONE', #165, 'mechanical' ) ;
#73 = PRODUCT_DEFINITION_FORMATION_WITH_SPECIFIED_SOURCE ( 'ANY', '', #30, .NOT_KNOWN. ) ;
#74 = EDGE_CURVE ( 'NONE', #152, #152, #39, .T. ) ;
#75 = SECURITY_CLASSIFICATION_LEVEL ( 'unclassified' ) ;
#76 = COORDINATED_UNIVERSAL_TIME_OFFSET ( 1, 0, .AHEAD. ) ;
#77 = EDGE_LOOP ( 'NONE', ( #174 ) ) ;
#78 = FACE_OUTER_BOUND ( 'NONE', #77, .T. ) ;
#79 = DESIGN_CONTEXT ( 'detailed design', #29, 'design' ) ;
#80 = ORGANIZATION ( 'UNSPECIFIED', 'UNSPECIFIED', '' ) ;
#81 = DIRECTION ( 'NONE',  ( 4.275831445896958607E-31, 1.000000000000000000, 1.224646799147353207E-16 ) ) ;
#82 = ORIENTED_EDGE ( 'NONE', *, *, #74, .F. ) ;
#83 = EDGE_CURVE ( 'NONE', #9, #9, #70, .T. ) ;
#84 = CARTESIAN_POINT ( 'NONE',  ( 0.0000000000000000000, 0.0000000000000000000, 0.0000000000000000000 ) ) ;
#85 = PERSON_AND_ORGANIZATION_ROLE ( 'creator' ) ;
#86 = CARTESIAN_POINT ( 'NONE',  ( 2.339292497024899474E-13, 3.374459510989166480E-32, 67.00000000000000000 ) ) ;
#87 = CALENDAR_DATE ( 2021, 15, 11 ) ;
#88 = CIRCLE ( 'NONE', #8, 5.000000000000000000 ) ;
#89 =( NAMED_UNIT ( * ) SI_UNIT ( $, .STERADIAN. ) SOLID_ANGLE_UNIT ( ) );
#90 = DATE_AND_TIME ( #19, #189 ) ;
#91 = COORDINATED_UNIVERSAL_TIME_OFFSET ( 1, 0, .AHEAD. ) ;
#92 = APPROVAL_PERSON_ORGANIZATION ( #7, #59, #141 ) ;
#93 = AXIS2_PLACEMENT_3D ( 'NONE', #86, #113, #68 ) ;
#94 = DIRECTION ( 'NONE',  ( -3.491481338843133355E-15, 1.224646799147353207E-16, -1.000000000000000000 ) ) ;
#95 = EDGE_LOOP ( 'NONE', ( #47 ) ) ;
#96 = LOCAL_TIME ( 9, 6, 6.000000000000000000, #91 ) ;
#97 = CC_DESIGN_PERSON_AND_ORGANIZATION_ASSIGNMENT ( #101, #85, ( #2 ) ) ;
#98 = ORIENTED_EDGE ( 'NONE', *, *, #175, .F. ) ;
#99 = DIRECTION ( 'NONE',  ( 0.0000000000000000000, 1.000000000000000000, 0.0000000000000000000 ) ) ;
#100 = DIRECTION ( 'NONE',  ( 3.491481338843133355E-15, -1.224646799147353207E-16, 1.000000000000000000 ) ) ;
#101 = PERSON_AND_ORGANIZATION ( #62, #80 ) ;
#102 = APPROVAL_DATE_TIME ( #103, #59 ) ;
#103 = DATE_AND_TIME ( #37, #140 ) ;
#104 = PERSON_AND_ORGANIZATION ( #62, #80 ) ;
#105 = ADVANCED_FACE ( 'NONE', ( #65 ), #48, .F. ) ;
#106 = CC_DESIGN_PERSON_AND_ORGANIZATION_ASSIGNMENT ( #201, #119, ( #30 ) ) ;
#107 = PERSON_AND_ORGANIZATION ( #62, #80 ) ;
#108 = CC_DESIGN_PERSON_AND_ORGANIZATION_ASSIGNMENT ( #154, #60, ( #183 ) ) ;
#109 = CARTESIAN_POINT ( 'NONE',  ( -1.068957861474239564E-30, 3.749399456654644020E-32, -3.061616997868383141E-16 ) ) ;
#110 = ADVANCED_FACE ( 'NONE', ( #132, #135 ), #193, .T. ) ;
#111 = EDGE_LOOP ( 'NONE', ( #156 ) ) ;
#112 = MANIFOLD_SOLID_BREP ( 'Corps-Déplacer/Copier1[2]', #15 ) ;
#113 = DIRECTION ( 'NONE',  ( -3.491481338843133355E-15, 1.224646799147353207E-16, -1.000000000000000000 ) ) ;
#114 = FACE_OUTER_BOUND ( 'NONE', #155, .T. ) ;
#115 =( NAMED_UNIT ( * ) PLANE_ANGLE_UNIT ( ) SI_UNIT ( $, .RADIAN. ) );
#116 = PLANE ( 'NONE',  #124 ) ;
#117 = DIRECTION ( 'NONE',  ( 0.0000000000000000000, 0.0000000000000000000, 1.000000000000000000 ) ) ;
#118 = CC_DESIGN_DATE_AND_TIME_ASSIGNMENT ( #123, #42, ( #183 ) ) ;
#119 = PERSON_AND_ORGANIZATION_ROLE ( 'design_owner' ) ;
#120 = CIRCLE ( 'NONE', #173, 4.499999999999998224 ) ;
#121 = ADVANCED_BREP_SHAPE_REPRESENTATION ( '334967', ( #184, #112, #199 ), #200 ) ;
#122 = PERSON_AND_ORGANIZATION ( #62, #80 ) ;
#123 = DATE_AND_TIME ( #153, #96 ) ;
#124 = AXIS2_PLACEMENT_3D ( 'NONE', #34, #100, #50 ) ;
#125 = PRODUCT_DEFINITION_SHAPE ( 'NONE', 'NONE',  #2 ) ;
#126 = ORIENTED_EDGE ( 'NONE', *, *, #11, .F. ) ;
#127 = CC_DESIGN_APPROVAL ( #170, ( #2 ) ) ;
#128 = ORIENTED_EDGE ( 'NONE', *, *, #74, .T. ) ;
#129 = DIRECTION ( 'NONE',  ( -3.491481338843133355E-15, 1.224646799147353207E-16, -1.000000000000000000 ) ) ;
#130 = CLOSED_SHELL ( 'NONE', ( #161, #168, #110, #105 ) ) ;
#131 = CYLINDRICAL_SURFACE ( 'NONE', #197, 4.999999999999993783 ) ;
#132 = FACE_BOUND ( 'NONE', #95, .T. ) ;
#133 = VERTEX_POINT ( 'NONE', #21 ) ;
#134 = EDGE_CURVE ( 'NONE', #133, #133, #88, .T. ) ;
#135 = FACE_OUTER_BOUND ( 'NONE', #158, .T. ) ;
#136 = CARTESIAN_POINT ( 'NONE',  ( 7.681258945454893382E-14, 3.749399456654640188E-32, 22.00000000000000000 ) ) ;
#137 = CC_DESIGN_DATE_AND_TIME_ASSIGNMENT ( #150, #181, ( #2 ) ) ;
#138 = DIRECTION ( 'NONE',  ( 1.000000000000000000, 0.0000000000000000000, 0.0000000000000000000 ) ) ;
#139 = DIRECTION ( 'NONE',  ( 3.491481338843133355E-15, -1.224646799147353207E-16, 1.000000000000000000 ) ) ;
#140 = LOCAL_TIME ( 9, 6, 6.000000000000000000, #56 ) ;
#141 = APPROVAL_ROLE ( '' ) ;
#142 = APPROVAL_PERSON_ORGANIZATION ( #104, #170, #24 ) ;
#143 = ADVANCED_FACE ( 'NONE', ( #196, #114 ), #178, .T. ) ;
#144 = DIRECTION ( 'NONE',  ( 0.0000000000000000000, 1.000000000000000000, 0.0000000000000000000 ) ) ;
#145 = EDGE_LOOP ( 'NONE', ( #44 ) ) ;
#146 = PRODUCT_RELATED_PRODUCT_CATEGORY ( 'detail', '', ( #30 ) ) ;
#147 = FACE_OUTER_BOUND ( 'NONE', #172, .T. ) ;
#148 = CARTESIAN_POINT ( 'NONE',  ( 7.681258945454893382E-14, 4.999999999999997335, 22.00000000000000000 ) ) ;
#149 = FACE_OUTER_BOUND ( 'NONE', #159, .T. ) ;
#150 = DATE_AND_TIME ( #87, #17 ) ;
#151 = COORDINATED_UNIVERSAL_TIME_OFFSET ( 1, 0, .AHEAD. ) ;
#152 = VERTEX_POINT ( 'NONE', #177 ) ;
#153 = CALENDAR_DATE ( 2021, 15, 11 ) ;
#154 = PERSON_AND_ORGANIZATION ( #62, #80 ) ;
#155 = EDGE_LOOP ( 'NONE', ( #194 ) ) ;
#156 = ORIENTED_EDGE ( 'NONE', *, *, #83, .T. ) ;
#157 = UNCERTAINTY_MEASURE_WITH_UNIT (LENGTH_MEASURE( 1.000000000000000082E-05 ), #38, 'distance_accuracy_value', 'NONE');
#158 = EDGE_LOOP ( 'NONE', ( #82 ) ) ;
#159 = EDGE_LOOP ( 'NONE', ( #128 ) ) ;
#160 = DIRECTION ( 'NONE',  ( -3.491481338843133355E-15, 1.224646799147353207E-16, -1.000000000000000000 ) ) ;
#161 = ADVANCED_FACE ( 'NONE', ( #18 ), #116, .F. ) ;
#162 = DIRECTION ( 'NONE',  ( 4.275831445896958607E-31, 1.000000000000000000, 1.224646799147353207E-16 ) ) ;
#163 = CARTESIAN_POINT ( 'NONE',  ( 7.681258945454893382E-14, 4.999999999999997335, 22.00000000000000000 ) ) ;
#164 = PERSON_AND_ORGANIZATION ( #62, #80 ) ;
#165 = APPLICATION_CONTEXT ( 'configuration controlled 3d designs of mechanical parts and assemblies' ) ;
#166 = DIRECTION ( 'NONE',  ( -4.275831445896958607E-31, -1.000000000000000000, -1.224646799147353207E-16 ) ) ;
#167 = CIRCLE ( 'NONE', #3, 5.000000000000000000 ) ;
#168 = ADVANCED_FACE ( 'NONE', ( #149, #147 ), #131, .T. ) ;
#169 = SHAPE_DEFINITION_REPRESENTATION ( #125, #121 ) ;
#170 = APPROVAL ( #69, 'UNSPECIFIED' ) ;
#171 = AXIS2_PLACEMENT_3D ( 'NONE', #136, #139, #166 ) ;
#172 = EDGE_LOOP ( 'NONE', ( #28 ) ) ;
#173 = AXIS2_PLACEMENT_3D ( 'NONE', #180, #5, #36 ) ;
#174 = ORIENTED_EDGE ( 'NONE', *, *, #134, .T. ) ;
#175 = EDGE_CURVE ( 'NONE', #40, #40, #120, .T. ) ;
#176 = CARTESIAN_POINT ( 'NONE',  ( 2.321835090330683366E-13, -8.143901214329899974E-15, 66.50000000000000000 ) ) ;
#177 = CARTESIAN_POINT ( 'NONE',  ( 2.321835090330683366E-13, 4.999999999999980460, 66.50000000000000000 ) ) ;
#178 = CYLINDRICAL_SURFACE ( 'NONE', #55, 5.000000000000000000 ) ;
#179 = APPROVAL_DATE_TIME ( #90, #170 ) ;
#180 = CARTESIAN_POINT ( 'NONE',  ( 2.339292497024898969E-13, -8.205133554287265970E-15, 66.99999999999998579 ) ) ;
#181 = DATE_TIME_ROLE ( 'creation_date' ) ;
#182 = FACE_OUTER_BOUND ( 'NONE', #14, .T. ) ;
#183 = SECURITY_CLASSIFICATION ( '', '', #75 ) ;
#184 = MANIFOLD_SOLID_BREP ( 'Corps-Déplacer/Copier1[1]', #130 ) ;
#185 = AXIS2_PLACEMENT_3D ( 'NONE', #176, #198, #195 ) ;
#186 = DATE_AND_TIME ( #57, #32 ) ;
#187 = CC_DESIGN_SECURITY_CLASSIFICATION ( #183, ( #73 ) ) ;
#188 = PLANE ( 'NONE',  #45 ) ;
#189 = LOCAL_TIME ( 9, 6, 6.000000000000000000, #151 ) ;
#190 = DIRECTION ( 'NONE',  ( -3.491481338843133355E-15, 1.224646799147353207E-16, -1.000000000000000000 ) ) ;
#191 = DIRECTION ( 'NONE',  ( 0.0000000000000000000, 1.000000000000000000, 0.0000000000000000000 ) ) ;
#192 = CC_DESIGN_PERSON_AND_ORGANIZATION_ASSIGNMENT ( #122, #12, ( #73 ) ) ;
#193 = CONICAL_SURFACE ( 'NONE', #185, 4.999999999999987566, 0.7853981633974518317 ) ;
#194 = ORIENTED_EDGE ( 'NONE', *, *, #134, .F. ) ;
#195 = DIRECTION ( 'NONE',  ( 0.0000000000000000000, 1.000000000000000000, 0.0000000000000000000 ) ) ;
#196 = FACE_OUTER_BOUND ( 'NONE', #145, .T. ) ;
#197 = AXIS2_PLACEMENT_3D ( 'NONE', #4, #20, #66 ) ;
#198 = DIRECTION ( 'NONE',  ( -3.491481338843133355E-15, 1.224646799147353207E-16, -1.000000000000000000 ) ) ;
#199 = AXIS2_PLACEMENT_3D ( 'NONE', #35, #117, #138 ) ;
#200 =( GEOMETRIC_REPRESENTATION_CONTEXT ( 3 ) GLOBAL_UNCERTAINTY_ASSIGNED_CONTEXT ( ( #157 ) ) GLOBAL_UNIT_ASSIGNED_CONTEXT ( ( #38, #115, #89 ) ) REPRESENTATION_CONTEXT ( 'NONE', 'WORKASPACE' ) );
#201 = PERSON_AND_ORGANIZATION ( #62, #80 ) ;
#202 = ADVANCED_FACE ( 'NONE', ( #182 ), #33, .T. ) ;
#203 = APPROVAL_STATUS ( 'not_yet_approved' ) ;
ENDSEC;
END-ISO-10303-21;
