ISO-10303-21;
HEADER;
FILE_DESCRIPTION (( 'STEP AP203' ),
    '1' );
FILE_NAME ('334966.step',
    '2021-11-15T08:06:06',
    ( '' ),
    ( '' ),
    'SwSTEP 2.0',
    'SolidWorks 2019',
    '' );
FILE_SCHEMA (( 'CONFIG_CONTROL_DESIGN' ));
ENDSEC;

DATA;
#1 = CALENDAR_DATE ( 2021, 15, 11 ) ;
#2 = ADVANCED_FACE ( 'NONE', ( #98 ), #116, .T. ) ;
#3 = AXIS2_PLACEMENT_3D ( 'NONE', #200, #152, #71 ) ;
#4 = DIRECTION ( 'NONE',  ( 4.275831445896958607E-31, 1.000000000000000000, 1.224646799147353207E-16 ) ) ;
#5 = ORIENTED_EDGE ( 'NONE', *, *, #14, .F. ) ;
#6 = COORDINATED_UNIVERSAL_TIME_OFFSET ( 1, 0, .AHEAD. ) ;
#7 = FACE_OUTER_BOUND ( 'NONE', #122, .T. ) ;
#8 =( NAMED_UNIT ( * ) SI_UNIT ( $, .STERADIAN. ) SOLID_ANGLE_UNIT ( ) );
#9 = PERSON_AND_ORGANIZATION ( #66, #157 ) ;
#10 = CC_DESIGN_APPROVAL ( #195, ( #177 ) ) ;
#11 = CIRCLE ( 'NONE', #203, 4.000000000000000888 ) ;
#12 = APPROVAL_DATE_TIME ( #128, #195 ) ;
#13 = UNCERTAINTY_MEASURE_WITH_UNIT (LENGTH_MEASURE( 1.000000000000000082E-05 ), #24, 'distance_accuracy_value', 'NONE');
#14 = EDGE_CURVE ( 'NONE', #201, #201, #180, .T. ) ;
#15 = CALENDAR_DATE ( 2021, 15, 11 ) ;
#16 = PERSON_AND_ORGANIZATION_ROLE ( 'classification_officer' ) ;
#17 = DIRECTION ( 'NONE',  ( 4.275831445896958607E-31, 1.000000000000000000, 1.224646799147353207E-16 ) ) ;
#18 = CC_DESIGN_PERSON_AND_ORGANIZATION_ASSIGNMENT ( #92, #155, ( #88 ) ) ;
#19 = DIRECTION ( 'NONE',  ( 0.0000000000000000000, 1.000000000000000000, 0.0000000000000000000 ) ) ;
#20 = EDGE_LOOP ( 'NONE', ( #89 ) ) ;
#21 = APPROVAL_PERSON_ORGANIZATION ( #189, #42, #109 ) ;
#22 = VERTEX_POINT ( 'NONE', #154 ) ;
#23 = ORIENTED_EDGE ( 'NONE', *, *, #144, .T. ) ;
#24 =( LENGTH_UNIT ( ) NAMED_UNIT ( * ) SI_UNIT ( .MILLI., .METRE. ) );
#25 = DIRECTION ( 'NONE',  ( 4.275831445896958607E-31, 1.000000000000000000, 1.224646799147353207E-16 ) ) ;
#26 = CC_DESIGN_DATE_AND_TIME_ASSIGNMENT ( #158, #146, ( #177 ) ) ;
#27 = DATE_AND_TIME ( #106, #76 ) ;
#28 = DATE_AND_TIME ( #175, #198 ) ;
#29 = APPROVAL_STATUS ( 'not_yet_approved' ) ;
#30 = CC_DESIGN_APPROVAL ( #78, ( #63 ) ) ;
#31 = FACE_OUTER_BOUND ( 'NONE', #20, .T. ) ;
#32 = DIRECTION ( 'NONE',  ( 4.275831445896958607E-31, 1.000000000000000000, 1.224646799147353207E-16 ) ) ;
#33 = APPLICATION_CONTEXT ( 'configuration controlled 3d designs of mechanical parts and assemblies' ) ;
#34 = PLANE ( 'NONE',  #103 ) ;
#35 = EDGE_CURVE ( 'NONE', #125, #125, #61, .T. ) ;
#36 = CARTESIAN_POINT ( 'NONE',  ( 2.217090650165389744E-13, -7.776507174585692952E-15, 63.50000000000000000 ) ) ;
#37 = EDGE_LOOP ( 'NONE', ( #68 ) ) ;
#38 = ADVANCED_BREP_SHAPE_REPRESENTATION ( '334966', ( #93, #165, #3 ), #118 ) ;
#39 = AXIS2_PLACEMENT_3D ( 'NONE', #105, #169, #25 ) ;
#40 = CARTESIAN_POINT ( 'NONE',  ( 6.284666409917640040E-14, 3.999999999999998224, 18.00000000000000000 ) ) ;
#41 = APPROVAL_STATUS ( 'not_yet_approved' ) ;
#42 = APPROVAL ( #41, 'UNSPECIFIED' ) ;
#43 = APPROVAL_DATE_TIME ( #73, #78 ) ;
#44 = CARTESIAN_POINT ( 'NONE',  ( 2.234548056859605347E-13, 3.499999999999992895, 64.00000000000000000 ) ) ;
#45 = PERSON_AND_ORGANIZATION ( #66, #157 ) ;
#46 = APPLICATION_CONTEXT ( 'configuration controlled 3d designs of mechanical parts and assemblies' ) ;
#47 = CONICAL_SURFACE ( 'NONE', #202, 4.000000000000000888, 0.7853981633974482790 ) ;
#48 = CARTESIAN_POINT ( 'NONE',  ( 6.284666409917640040E-14, -2.204364238465235428E-15, 18.00000000000000000 ) ) ;
#49 = AXIS2_PLACEMENT_3D ( 'NONE', #36, #65, #19 ) ;
#50 = CYLINDRICAL_SURFACE ( 'NONE', #167, 4.000000000000000000 ) ;
#51 = EDGE_CURVE ( 'NONE', #141, #141, #72, .T. ) ;
#52 = CYLINDRICAL_SURFACE ( 'NONE', #143, 4.000000000000000888 ) ;
#53 = DIRECTION ( 'NONE',  ( -3.491481338843133355E-15, 1.224646799147353207E-16, -1.000000000000000000 ) ) ;
#54 = CARTESIAN_POINT ( 'NONE',  ( 6.284666409917640040E-14, 2.999519565323712479E-32, 18.00000000000000000 ) ) ;
#55 = CC_DESIGN_PERSON_AND_ORGANIZATION_ASSIGNMENT ( #94, #170, ( #88 ) ) ;
#56 = CC_DESIGN_APPROVAL ( #42, ( #88 ) ) ;
#57 = DIRECTION ( 'NONE',  ( -3.491481338843133355E-15, 1.224646799147353207E-16, -1.000000000000000000 ) ) ;
#58 = EDGE_LOOP ( 'NONE', ( #5 ) ) ;
#59 = PERSON_AND_ORGANIZATION ( #66, #157 ) ;
#60 = APPLICATION_PROTOCOL_DEFINITION ( 'international standard', 'config_control_design', 1994, #33 ) ;
#61 = CIRCLE ( 'NONE', #86, 4.000000000000000888 ) ;
#62 = CC_DESIGN_PERSON_AND_ORGANIZATION_ASSIGNMENT ( #110, #140, ( #63 ) ) ;
#63 = PRODUCT_DEFINITION ( 'UNKNOWN', '', #88, #145 ) ;
#64 = DIRECTION ( 'NONE',  ( 4.275831445896958607E-31, 1.000000000000000000, 1.224646799147353207E-16 ) ) ;
#65 = DIRECTION ( 'NONE',  ( -3.491481338843133355E-15, 1.224646799147353207E-16, -1.000000000000000000 ) ) ;
#66 = PERSON ( 'UNSPECIFIED', 'UNSPECIFIED', 'UNSPECIFIED', ('UNSPECIFIED'), ('UNSPECIFIED'), ('UNSPECIFIED') ) ;
#67 = EDGE_LOOP ( 'NONE', ( #135 ) ) ;
#68 = ORIENTED_EDGE ( 'NONE', *, *, #51, .F. ) ;
#69 = ORIENTED_EDGE ( 'NONE', *, *, #81, .F. ) ;
#70 = ADVANCED_FACE ( 'NONE', ( #183, #31 ), #50, .T. ) ;
#71 = DIRECTION ( 'NONE',  ( 1.000000000000000000, 0.0000000000000000000, 0.0000000000000000000 ) ) ;
#72 = CIRCLE ( 'NONE', #49, 4.000000000000000888 ) ;
#73 = DATE_AND_TIME ( #127, #186 ) ;
#74 = APPLICATION_PROTOCOL_DEFINITION ( 'international standard', 'config_control_design', 1994, #46 ) ;
#75 = APPROVAL_STATUS ( 'not_yet_approved' ) ;
#76 = LOCAL_TIME ( 9, 6, 6.000000000000000000, #173 ) ;
#77 = CIRCLE ( 'NONE', #192, 4.000000000000000000 ) ;
#78 = APPROVAL ( #75, 'UNSPECIFIED' ) ;
#79 = DIRECTION ( 'NONE',  ( 0.0000000000000000000, 1.000000000000000000, 0.0000000000000000000 ) ) ;
#80 = COORDINATED_UNIVERSAL_TIME_OFFSET ( 1, 0, .AHEAD. ) ;
#81 = EDGE_CURVE ( 'NONE', #91, #91, #11, .T. ) ;
#82 = CARTESIAN_POINT ( 'NONE',  ( -1.710332578358783092E-30, 5.999039130647430431E-32, -4.898587196589412829E-16 ) ) ;
#83 = CARTESIAN_POINT ( 'NONE',  ( 2.234548056859605347E-13, 2.624579619658239319E-32, 64.00000000000000000 ) ) ;
#84 = APPROVAL_PERSON_ORGANIZATION ( #45, #78, #199 ) ;
#85 = CARTESIAN_POINT ( 'NONE',  ( 2.234548056859605347E-13, -7.837739514543060526E-15, 64.00000000000000000 ) ) ;
#86 = AXIS2_PLACEMENT_3D ( 'NONE', #119, #179, #191 ) ;
#87 = ORIENTED_EDGE ( 'NONE', *, *, #35, .F. ) ;
#88 = PRODUCT_DEFINITION_FORMATION_WITH_SPECIFIED_SOURCE ( 'ANY', '', #174, .NOT_KNOWN. ) ;
#89 = ORIENTED_EDGE ( 'NONE', *, *, #144, .F. ) ;
#90 = MECHANICAL_CONTEXT ( 'NONE', #33, 'mechanical' ) ;
#91 = VERTEX_POINT ( 'NONE', #40 ) ;
#92 = PERSON_AND_ORGANIZATION ( #66, #157 ) ;
#93 = MANIFOLD_SOLID_BREP ( 'Corps-Déplacer/Copier1[1]', #112 ) ;
#94 = PERSON_AND_ORGANIZATION ( #66, #157 ) ;
#95 = AXIS2_PLACEMENT_3D ( 'NONE', #54, #176, #197 ) ;
#96 = CC_DESIGN_DATE_AND_TIME_ASSIGNMENT ( #28, #168, ( #63 ) ) ;
#97 = DIRECTION ( 'NONE',  ( -3.491481338843133355E-15, 1.224646799147353207E-16, -1.000000000000000000 ) ) ;
#98 = FACE_OUTER_BOUND ( 'NONE', #150, .T. ) ;
#99 = DIRECTION ( 'NONE',  ( -3.491481338843133355E-15, 1.224646799147353207E-16, -1.000000000000000000 ) ) ;
#100 = DIRECTION ( 'NONE',  ( -3.491481338843133355E-15, 1.224646799147353207E-16, -1.000000000000000000 ) ) ;
#101 = EDGE_LOOP ( 'NONE', ( #102 ) ) ;
#102 = ORIENTED_EDGE ( 'NONE', *, *, #14, .T. ) ;
#103 = AXIS2_PLACEMENT_3D ( 'NONE', #83, #182, #64 ) ;
#104 = CC_DESIGN_PERSON_AND_ORGANIZATION_ASSIGNMENT ( #59, #139, ( #174 ) ) ;
#105 = CARTESIAN_POINT ( 'NONE',  ( -8.551662891793915461E-31, 2.999519565323715216E-32, -2.449293598294706414E-16 ) ) ;
#106 = CALENDAR_DATE ( 2021, 15, 11 ) ;
#107 = PLANE ( 'NONE',  #39 ) ;
#108 = APPROVAL_DATE_TIME ( #27, #42 ) ;
#109 = APPROVAL_ROLE ( '' ) ;
#110 = PERSON_AND_ORGANIZATION ( #66, #157 ) ;
#111 = PRODUCT_DEFINITION_SHAPE ( 'NONE', 'NONE',  #63 ) ;
#112 = CLOSED_SHELL ( 'NONE', ( #187, #115, #171, #148 ) ) ;
#113 = APPROVAL_ROLE ( '' ) ;
#114 = COORDINATED_UNIVERSAL_TIME_OFFSET ( 1, 0, .AHEAD. ) ;
#115 = ADVANCED_FACE ( 'NONE', ( #147, #129 ), #52, .T. ) ;
#116 = PLANE ( 'NONE',  #162 ) ;
#117 = PERSON_AND_ORGANIZATION ( #66, #157 ) ;
#118 =( GEOMETRIC_REPRESENTATION_CONTEXT ( 3 ) GLOBAL_UNCERTAINTY_ASSIGNED_CONTEXT ( ( #13 ) ) GLOBAL_UNIT_ASSIGNED_CONTEXT ( ( #24, #123, #8 ) ) REPRESENTATION_CONTEXT ( 'NONE', 'WORKASPACE' ) );
#119 = CARTESIAN_POINT ( 'NONE',  ( 6.284666409917640040E-14, -2.204364238465235428E-15, 18.00000000000000000 ) ) ;
#120 = DIRECTION ( 'NONE',  ( 3.491481338843133355E-15, -1.224646799147353207E-16, 1.000000000000000000 ) ) ;
#121 = CARTESIAN_POINT ( 'NONE',  ( 0.0000000000000000000, 0.0000000000000000000, 0.0000000000000000000 ) ) ;
#122 = EDGE_LOOP ( 'NONE', ( #23 ) ) ;
#123 =( NAMED_UNIT ( * ) PLANE_ANGLE_UNIT ( ) SI_UNIT ( $, .RADIAN. ) );
#124 = LOCAL_TIME ( 9, 6, 6.000000000000000000, #114 ) ;
#125 = VERTEX_POINT ( 'NONE', #188 ) ;
#126 = FACE_OUTER_BOUND ( 'NONE', #185, .T. ) ;
#127 = CALENDAR_DATE ( 2021, 15, 11 ) ;
#128 = DATE_AND_TIME ( #1, #166 ) ;
#129 = FACE_OUTER_BOUND ( 'NONE', #134, .T. ) ;
#130 = CC_DESIGN_SECURITY_CLASSIFICATION ( #177, ( #88 ) ) ;
#131 = DIRECTION ( 'NONE',  ( 0.0000000000000000000, 1.000000000000000000, 0.0000000000000000000 ) ) ;
#132 = PRODUCT_RELATED_PRODUCT_CATEGORY ( 'detail', '', ( #174 ) ) ;
#133 = FACE_BOUND ( 'NONE', #101, .T. ) ;
#134 = EDGE_LOOP ( 'NONE', ( #69 ) ) ;
#135 = ORIENTED_EDGE ( 'NONE', *, *, #35, .T. ) ;
#136 = PLANE ( 'NONE',  #95 ) ;
#137 = CLOSED_SHELL ( 'NONE', ( #178, #70, #2 ) ) ;
#138 = ORIENTED_EDGE ( 'NONE', *, *, #51, .T. ) ;
#139 = PERSON_AND_ORGANIZATION_ROLE ( 'design_owner' ) ;
#140 = PERSON_AND_ORGANIZATION_ROLE ( 'creator' ) ;
#141 = VERTEX_POINT ( 'NONE', #153 ) ;
#142 = APPROVAL_PERSON_ORGANIZATION ( #117, #195, #113 ) ;
#143 = AXIS2_PLACEMENT_3D ( 'NONE', #181, #100, #32 ) ;
#144 = EDGE_CURVE ( 'NONE', #22, #22, #77, .T. ) ;
#145 = DESIGN_CONTEXT ( 'detailed design', #46, 'design' ) ;
#146 = DATE_TIME_ROLE ( 'classification_date' ) ;
#147 = FACE_OUTER_BOUND ( 'NONE', #151, .T. ) ;
#148 = ADVANCED_FACE ( 'NONE', ( #193 ), #34, .F. ) ;
#149 = CARTESIAN_POINT ( 'NONE',  ( 2.217090650165389744E-13, -7.776507174585692952E-15, 63.50000000000000000 ) ) ;
#150 = EDGE_LOOP ( 'NONE', ( #87 ) ) ;
#151 = EDGE_LOOP ( 'NONE', ( #138 ) ) ;
#152 = DIRECTION ( 'NONE',  ( 0.0000000000000000000, 0.0000000000000000000, 1.000000000000000000 ) ) ;
#153 = CARTESIAN_POINT ( 'NONE',  ( 2.217090650165389744E-13, 3.999999999999993339, 63.50000000000000000 ) ) ;
#154 = CARTESIAN_POINT ( 'NONE',  ( 3.421138828918010427E-46, 4.000000000000000000, 0.0000000000000000000 ) ) ;
#155 = PERSON_AND_ORGANIZATION_ROLE ( 'design_supplier' ) ;
#156 = SECURITY_CLASSIFICATION_LEVEL ( 'unclassified' ) ;
#157 = ORGANIZATION ( 'UNSPECIFIED', 'UNSPECIFIED', '' ) ;
#158 = DATE_AND_TIME ( #15, #124 ) ;
#159 = SHAPE_DEFINITION_REPRESENTATION ( #111, #38 ) ;
#160 = CC_DESIGN_PERSON_AND_ORGANIZATION_ASSIGNMENT ( #9, #16, ( #177 ) ) ;
#161 = DIRECTION ( 'NONE',  ( -3.491481338843133355E-15, 1.224646799147353207E-16, -1.000000000000000000 ) ) ;
#162 = AXIS2_PLACEMENT_3D ( 'NONE', #196, #120, #163 ) ;
#163 = DIRECTION ( 'NONE',  ( -4.275831445896958607E-31, -1.000000000000000000, -1.224646799147353207E-16 ) ) ;
#164 = ORIENTED_EDGE ( 'NONE', *, *, #81, .T. ) ;
#165 = MANIFOLD_SOLID_BREP ( 'Corps-Déplacer/Copier1[2]', #137 ) ;
#166 = LOCAL_TIME ( 9, 6, 6.000000000000000000, #80 ) ;
#167 = AXIS2_PLACEMENT_3D ( 'NONE', #121, #99, #4 ) ;
#168 = DATE_TIME_ROLE ( 'creation_date' ) ;
#169 = DIRECTION ( 'NONE',  ( -3.491481338843133355E-15, 1.224646799147353207E-16, -1.000000000000000000 ) ) ;
#170 = PERSON_AND_ORGANIZATION_ROLE ( 'creator' ) ;
#171 = ADVANCED_FACE ( 'NONE', ( #133, #194 ), #47, .T. ) ;
#172 = COORDINATED_UNIVERSAL_TIME_OFFSET ( 1, 0, .AHEAD. ) ;
#173 = COORDINATED_UNIVERSAL_TIME_OFFSET ( 1, 0, .AHEAD. ) ;
#174 = PRODUCT ( '334966', '334966', '', ( #90 ) ) ;
#175 = CALENDAR_DATE ( 2021, 15, 11 ) ;
#176 = DIRECTION ( 'NONE',  ( 3.491481338843133355E-15, -1.224646799147353207E-16, 1.000000000000000000 ) ) ;
#177 = SECURITY_CLASSIFICATION ( '', '', #156 ) ;
#178 = ADVANCED_FACE ( 'NONE', ( #7 ), #107, .T. ) ;
#179 = DIRECTION ( 'NONE',  ( -3.491481338843133355E-15, 1.224646799147353207E-16, -1.000000000000000000 ) ) ;
#180 = CIRCLE ( 'NONE', #190, 3.500000000000000444 ) ;
#181 = CARTESIAN_POINT ( 'NONE',  ( 0.0000000000000000000, 0.0000000000000000000, 0.0000000000000000000 ) ) ;
#182 = DIRECTION ( 'NONE',  ( -3.491481338843133355E-15, 1.224646799147353207E-16, -1.000000000000000000 ) ) ;
#183 = FACE_OUTER_BOUND ( 'NONE', #67, .T. ) ;
#184 = DIRECTION ( 'NONE',  ( 0.0000000000000000000, 1.000000000000000000, 0.0000000000000000000 ) ) ;
#185 = EDGE_LOOP ( 'NONE', ( #164 ) ) ;
#186 = LOCAL_TIME ( 9, 6, 6.000000000000000000, #172 ) ;
#187 = ADVANCED_FACE ( 'NONE', ( #126 ), #136, .F. ) ;
#188 = CARTESIAN_POINT ( 'NONE',  ( 6.284666409917640040E-14, 3.999999999999998224, 18.00000000000000000 ) ) ;
#189 = PERSON_AND_ORGANIZATION ( #66, #157 ) ;
#190 = AXIS2_PLACEMENT_3D ( 'NONE', #85, #53, #131 ) ;
#191 = DIRECTION ( 'NONE',  ( 0.0000000000000000000, 1.000000000000000000, 0.0000000000000000000 ) ) ;
#192 = AXIS2_PLACEMENT_3D ( 'NONE', #82, #161, #17 ) ;
#193 = FACE_OUTER_BOUND ( 'NONE', #58, .T. ) ;
#194 = FACE_OUTER_BOUND ( 'NONE', #37, .T. ) ;
#195 = APPROVAL ( #29, 'UNSPECIFIED' ) ;
#196 = CARTESIAN_POINT ( 'NONE',  ( 6.284666409917640040E-14, 2.999519565323712479E-32, 18.00000000000000000 ) ) ;
#197 = DIRECTION ( 'NONE',  ( -4.275831445896958607E-31, -1.000000000000000000, -1.224646799147353207E-16 ) ) ;
#198 = LOCAL_TIME ( 9, 6, 6.000000000000000000, #6 ) ;
#199 = APPROVAL_ROLE ( '' ) ;
#200 = CARTESIAN_POINT ( 'NONE',  ( 0.0000000000000000000, 0.0000000000000000000, 0.0000000000000000000 ) ) ;
#201 = VERTEX_POINT ( 'NONE', #44 ) ;
#202 = AXIS2_PLACEMENT_3D ( 'NONE', #149, #57, #184 ) ;
#203 = AXIS2_PLACEMENT_3D ( 'NONE', #48, #97, #79 ) ;
ENDSEC;
END-ISO-10303-21;
