ISO-10303-21;
HEADER;
FILE_DESCRIPTION (( 'STEP AP203' ),
    '1' );
FILE_NAME ('334965.step',
    '2021-11-15T08:06:05',
    ( '' ),
    ( '' ),
    'SwSTEP 2.0',
    'SolidWorks 2019',
    '' );
FILE_SCHEMA (( 'CONFIG_CONTROL_DESIGN' ));
ENDSEC;

DATA;
#1 = COORDINATED_UNIVERSAL_TIME_OFFSET ( 1, 0, .AHEAD. ) ;
#2 = FACE_OUTER_BOUND ( 'NONE', #195, .T. ) ;
#3 = CC_DESIGN_APPROVAL ( #177, ( #96 ) ) ;
#4 = CC_DESIGN_APPROVAL ( #33, ( #183 ) ) ;
#5 = FACE_OUTER_BOUND ( 'NONE', #149, .T. ) ;
#6 = ADVANCED_FACE ( 'NONE', ( #56 ), #186, .T. ) ;
#7 = CYLINDRICAL_SURFACE ( 'NONE', #116, 3.000000000000000888 ) ;
#8 = CARTESIAN_POINT ( 'NONE',  ( 4.538925740496073362E-14, 2.999999999999998224, 13.00000000000000000 ) ) ;
#9 = CARTESIAN_POINT ( 'NONE',  ( 1.902857329669507616E-13, -6.674325055353075041E-15, 54.50000000000000000 ) ) ;
#10 = CLOSED_SHELL ( 'NONE', ( #14, #124, #6 ) ) ;
#11 = VERTEX_POINT ( 'NONE', #185 ) ;
#12 = DIRECTION ( 'NONE',  ( -3.491481338843133355E-15, 1.224646799147353207E-16, -1.000000000000000000 ) ) ;
#13 = APPLICATION_PROTOCOL_DEFINITION ( 'international standard', 'config_control_design', 1994, #102 ) ;
#14 = ADVANCED_FACE ( 'NONE', ( #170 ), #27, .T. ) ;
#15 = DIRECTION ( 'NONE',  ( -3.491481338843133355E-15, 1.224646799147353207E-16, -1.000000000000000000 ) ) ;
#16 = DATE_AND_TIME ( #157, #119 ) ;
#17 =( GEOMETRIC_REPRESENTATION_CONTEXT ( 3 ) GLOBAL_UNCERTAINTY_ASSIGNED_CONTEXT ( ( #156 ) ) GLOBAL_UNIT_ASSIGNED_CONTEXT ( ( #79, #62, #202 ) ) REPRESENTATION_CONTEXT ( 'NONE', 'WORKASPACE' ) );
#18 = CALENDAR_DATE ( 2021, 15, 11 ) ;
#19 = APPROVAL_STATUS ( 'not_yet_approved' ) ;
#20 = LOCAL_TIME ( 9, 6, 5.000000000000000000, #203 ) ;
#21 = EDGE_LOOP ( 'NONE', ( #194 ) ) ;
#22 = DATE_AND_TIME ( #188, #20 ) ;
#23 = CC_DESIGN_PERSON_AND_ORGANIZATION_ASSIGNMENT ( #196, #44, ( #96 ) ) ;
#24 = CARTESIAN_POINT ( 'NONE',  ( 4.538925740496073362E-14, 2.249639673992783675E-32, 13.00000000000000000 ) ) ;
#25 = CARTESIAN_POINT ( 'NONE',  ( 4.538925740496073362E-14, -1.592040838891559095E-15, 13.00000000000000000 ) ) ;
#26 = DIRECTION ( 'NONE',  ( 0.0000000000000000000, 0.0000000000000000000, 1.000000000000000000 ) ) ;
#27 = PLANE ( 'NONE',  #141 ) ;
#28 = CARTESIAN_POINT ( 'NONE',  ( 4.538925740496073362E-14, 2.249639673992783675E-32, 13.00000000000000000 ) ) ;
#29 = VERTEX_POINT ( 'NONE', #43 ) ;
#30 = DATE_TIME_ROLE ( 'creation_date' ) ;
#31 = CIRCLE ( 'NONE', #90, 3.000000000000000000 ) ;
#32 = CC_DESIGN_SECURITY_CLASSIFICATION ( #183, ( #96 ) ) ;
#33 = APPROVAL ( #70, 'UNSPECIFIED' ) ;
#34 = CC_DESIGN_PERSON_AND_ORGANIZATION_ASSIGNMENT ( #181, #57, ( #109 ) ) ;
#35 = DIRECTION ( 'NONE',  ( 4.275831445896959482E-31, 1.000000000000000000, 1.224646799147353207E-16 ) ) ;
#36 = APPROVAL_DATE_TIME ( #77, #75 ) ;
#37 = FACE_OUTER_BOUND ( 'NONE', #165, .T. ) ;
#38 = ORIENTED_EDGE ( 'NONE', *, *, #153, .T. ) ;
#39 = CONICAL_SURFACE ( 'NONE', #161, 3.000000000000002220, 0.7853981633974445042 ) ;
#40 = LOCAL_TIME ( 9, 6, 5.000000000000000000, #65 ) ;
#41 = EDGE_LOOP ( 'NONE', ( #51 ) ) ;
#42 = DESIGN_CONTEXT ( 'detailed design', #102, 'design' ) ;
#43 = CARTESIAN_POINT ( 'NONE',  ( 1.920314736363723724E-13, 2.499999999999992006, 55.00000000000000711 ) ) ;
#44 = PERSON_AND_ORGANIZATION_ROLE ( 'creator' ) ;
#45 = FACE_OUTER_BOUND ( 'NONE', #129, .T. ) ;
#46 = ADVANCED_FACE ( 'NONE', ( #150, #110 ), #7, .T. ) ;
#47 = CIRCLE ( 'NONE', #127, 2.499999999999998668 ) ;
#48 = CARTESIAN_POINT ( 'NONE',  ( 1.920314736363723724E-13, -8.310224236210339646E-31, 55.00000000000000711 ) ) ;
#49 = ORIENTED_EDGE ( 'NONE', *, *, #105, .T. ) ;
#50 = APPROVAL_DATE_TIME ( #118, #33 ) ;
#51 = ORIENTED_EDGE ( 'NONE', *, *, #153, .F. ) ;
#52 = CALENDAR_DATE ( 2021, 15, 11 ) ;
#53 = APPROVAL_ROLE ( '' ) ;
#54 = SHAPE_DEFINITION_REPRESENTATION ( #107, #108 ) ;
#55 = COORDINATED_UNIVERSAL_TIME_OFFSET ( 1, 0, .AHEAD. ) ;
#56 = FACE_OUTER_BOUND ( 'NONE', #85, .T. ) ;
#57 = PERSON_AND_ORGANIZATION_ROLE ( 'creator' ) ;
#58 = VERTEX_POINT ( 'NONE', #8 ) ;
#59 = DIRECTION ( 'NONE',  ( 0.0000000000000000000, 1.000000000000000000, 0.0000000000000000000 ) ) ;
#60 = CARTESIAN_POINT ( 'NONE',  ( -1.282749433769087757E-30, 4.499279347985572824E-32, -3.673940397442059868E-16 ) ) ;
#61 = CARTESIAN_POINT ( 'NONE',  ( 4.538925740496073362E-14, 2.999999999999998224, 13.00000000000000000 ) ) ;
#62 =( NAMED_UNIT ( * ) PLANE_ANGLE_UNIT ( ) SI_UNIT ( $, .RADIAN. ) );
#63 = PERSON_AND_ORGANIZATION ( #132, #83 ) ;
#64 = CC_DESIGN_DATE_AND_TIME_ASSIGNMENT ( #111, #30, ( #109 ) ) ;
#65 = COORDINATED_UNIVERSAL_TIME_OFFSET ( 1, 0, .AHEAD. ) ;
#66 = EDGE_CURVE ( 'NONE', #187, #187, #125, .T. ) ;
#67 = AXIS2_PLACEMENT_3D ( 'NONE', #72, #190, #35 ) ;
#68 = DIRECTION ( 'NONE',  ( 0.0000000000000000000, 1.000000000000000000, 0.0000000000000000000 ) ) ;
#69 = ORIENTED_EDGE ( 'NONE', *, *, #121, .T. ) ;
#70 = APPROVAL_STATUS ( 'not_yet_approved' ) ;
#71 = ORIENTED_EDGE ( 'NONE', *, *, #105, .F. ) ;
#72 = CARTESIAN_POINT ( 'NONE',  ( 0.0000000000000000000, 0.0000000000000000000, 0.0000000000000000000 ) ) ;
#73 = COORDINATED_UNIVERSAL_TIME_OFFSET ( 1, 0, .AHEAD. ) ;
#74 = ORIENTED_EDGE ( 'NONE', *, *, #89, .T. ) ;
#75 = APPROVAL ( #19, 'UNSPECIFIED' ) ;
#76 = PRODUCT ( '334965', '334965', '', ( #136 ) ) ;
#77 = DATE_AND_TIME ( #114, #40 ) ;
#78 = DIRECTION ( 'NONE',  ( 4.275831445896959482E-31, 1.000000000000000000, 1.224646799147353207E-16 ) ) ;
#79 =( LENGTH_UNIT ( ) NAMED_UNIT ( * ) SI_UNIT ( .MILLI., .METRE. ) );
#80 = CC_DESIGN_PERSON_AND_ORGANIZATION_ASSIGNMENT ( #63, #94, ( #96 ) ) ;
#81 = EDGE_LOOP ( 'NONE', ( #38 ) ) ;
#82 = APPROVAL_STATUS ( 'not_yet_approved' ) ;
#83 = ORGANIZATION ( 'UNSPECIFIED', 'UNSPECIFIED', '' ) ;
#84 = FACE_BOUND ( 'NONE', #81, .T. ) ;
#85 = EDGE_LOOP ( 'NONE', ( #162 ) ) ;
#86 = CC_DESIGN_PERSON_AND_ORGANIZATION_ASSIGNMENT ( #101, #178, ( #183 ) ) ;
#87 = MANIFOLD_SOLID_BREP ( 'Corps-Déplacer/Copier1[1]', #167 ) ;
#88 = ORIENTED_EDGE ( 'NONE', *, *, #66, .F. ) ;
#89 = EDGE_CURVE ( 'NONE', #171, #171, #160, .T. ) ;
#90 = AXIS2_PLACEMENT_3D ( 'NONE', #142, #175, #68 ) ;
#91 = CARTESIAN_POINT ( 'NONE',  ( 0.0000000000000000000, 3.000000000000000000, 0.0000000000000000000 ) ) ;
#92 = DIRECTION ( 'NONE',  ( 0.0000000000000000000, 1.000000000000000000, 0.0000000000000000000 ) ) ;
#93 = CARTESIAN_POINT ( 'NONE',  ( 0.0000000000000000000, 0.0000000000000000000, 0.0000000000000000000 ) ) ;
#94 = PERSON_AND_ORGANIZATION_ROLE ( 'design_supplier' ) ;
#95 = APPLICATION_CONTEXT ( 'configuration controlled 3d designs of mechanical parts and assemblies' ) ;
#96 = PRODUCT_DEFINITION_FORMATION_WITH_SPECIFIED_SOURCE ( 'ANY', '', #76, .NOT_KNOWN. ) ;
#97 = LOCAL_TIME ( 9, 6, 5.000000000000000000, #1 ) ;
#98 = DIRECTION ( 'NONE',  ( -3.491481338843133355E-15, 1.224646799147353207E-16, -1.000000000000000000 ) ) ;
#99 = DIRECTION ( 'NONE',  ( 0.0000000000000000000, 1.000000000000000000, 0.0000000000000000000 ) ) ;
#100 = APPROVAL_ROLE ( '' ) ;
#101 = PERSON_AND_ORGANIZATION ( #132, #83 ) ;
#102 = APPLICATION_CONTEXT ( 'configuration controlled 3d designs of mechanical parts and assemblies' ) ;
#103 = CARTESIAN_POINT ( 'NONE',  ( 1.902857329669507616E-13, -6.674325055353075041E-15, 54.50000000000000000 ) ) ;
#104 = AXIS2_PLACEMENT_3D ( 'NONE', #28, #122, #139 ) ;
#105 = EDGE_CURVE ( 'NONE', #11, #11, #135, .T. ) ;
#106 = APPLICATION_PROTOCOL_DEFINITION ( 'international standard', 'config_control_design', 1994, #95 ) ;
#107 = PRODUCT_DEFINITION_SHAPE ( 'NONE', 'NONE',  #109 ) ;
#108 = ADVANCED_BREP_SHAPE_REPRESENTATION ( '334965', ( #87, #148, #168 ), #17 ) ;
#109 = PRODUCT_DEFINITION ( 'UNKNOWN', '', #96, #42 ) ;
#110 = FACE_OUTER_BOUND ( 'NONE', #130, .T. ) ;
#111 = DATE_AND_TIME ( #18, #182 ) ;
#112 = DIRECTION ( 'NONE',  ( 4.275831445896958607E-31, 1.000000000000000000, 1.224646799147353207E-16 ) ) ;
#113 = ADVANCED_FACE ( 'NONE', ( #84, #37 ), #39, .T. ) ;
#114 = CALENDAR_DATE ( 2021, 15, 11 ) ;
#115 = APPROVAL_PERSON_ORGANIZATION ( #133, #177, #53 ) ;
#116 = AXIS2_PLACEMENT_3D ( 'NONE', #93, #12, #138 ) ;
#117 = PERSON_AND_ORGANIZATION ( #132, #83 ) ;
#118 = DATE_AND_TIME ( #52, #97 ) ;
#119 = LOCAL_TIME ( 9, 6, 5.000000000000000000, #55 ) ;
#120 = AXIS2_PLACEMENT_3D ( 'NONE', #60, #173, #78 ) ;
#121 = EDGE_CURVE ( 'NONE', #58, #58, #31, .T. ) ;
#122 = DIRECTION ( 'NONE',  ( 3.491481338843133355E-15, -1.224646799147353207E-16, 1.000000000000000000 ) ) ;
#123 = PLANE ( 'NONE',  #143 ) ;
#124 = ADVANCED_FACE ( 'NONE', ( #5, #2 ), #146, .T. ) ;
#125 = CIRCLE ( 'NONE', #120, 3.000000000000000000 ) ;
#126 = PERSON_AND_ORGANIZATION ( #132, #83 ) ;
#127 = AXIS2_PLACEMENT_3D ( 'NONE', #201, #15, #59 ) ;
#128 = PLANE ( 'NONE',  #200 ) ;
#129 = EDGE_LOOP ( 'NONE', ( #69 ) ) ;
#130 = EDGE_LOOP ( 'NONE', ( #144 ) ) ;
#131 = FACE_OUTER_BOUND ( 'NONE', #41, .T. ) ;
#132 = PERSON ( 'UNSPECIFIED', 'UNSPECIFIED', 'UNSPECIFIED', ('UNSPECIFIED'), ('UNSPECIFIED'), ('UNSPECIFIED') ) ;
#133 = PERSON_AND_ORGANIZATION ( #132, #83 ) ;
#134 = APPROVAL_DATE_TIME ( #22, #177 ) ;
#135 = CIRCLE ( 'NONE', #198, 3.000000000000002220 ) ;
#136 = MECHANICAL_CONTEXT ( 'NONE', #95, 'mechanical' ) ;
#137 = ADVANCED_FACE ( 'NONE', ( #131 ), #128, .F. ) ;
#138 = DIRECTION ( 'NONE',  ( 4.275831445896958607E-31, 1.000000000000000000, 1.224646799147353207E-16 ) ) ;
#139 = DIRECTION ( 'NONE',  ( -4.275831445896958607E-31, -1.000000000000000000, -1.224646799147353207E-16 ) ) ;
#140 = DIRECTION ( 'NONE',  ( 3.491481338843133355E-15, -1.224646799147353207E-16, 1.000000000000000000 ) ) ;
#141 = AXIS2_PLACEMENT_3D ( 'NONE', #169, #154, #199 ) ;
#142 = CARTESIAN_POINT ( 'NONE',  ( 4.538925740496073362E-14, -1.592040838891559095E-15, 13.00000000000000000 ) ) ;
#143 = AXIS2_PLACEMENT_3D ( 'NONE', #24, #140, #158 ) ;
#144 = ORIENTED_EDGE ( 'NONE', *, *, #121, .F. ) ;
#145 = CC_DESIGN_APPROVAL ( #75, ( #109 ) ) ;
#146 = CYLINDRICAL_SURFACE ( 'NONE', #67, 3.000000000000000000 ) ;
#147 = EDGE_LOOP ( 'NONE', ( #49 ) ) ;
#148 = MANIFOLD_SOLID_BREP ( 'Corps-Déplacer/Copier1[2]', #10 ) ;
#149 = EDGE_LOOP ( 'NONE', ( #74 ) ) ;
#150 = FACE_OUTER_BOUND ( 'NONE', #147, .T. ) ;
#151 = PERSON_AND_ORGANIZATION_ROLE ( 'design_owner' ) ;
#152 = AXIS2_PLACEMENT_3D ( 'NONE', #25, #197, #92 ) ;
#153 = EDGE_CURVE ( 'NONE', #29, #29, #47, .T. ) ;
#154 = DIRECTION ( 'NONE',  ( -3.491481338843133355E-15, 1.224646799147353207E-16, -1.000000000000000000 ) ) ;
#155 = PERSON_AND_ORGANIZATION ( #132, #83 ) ;
#156 = UNCERTAINTY_MEASURE_WITH_UNIT (LENGTH_MEASURE( 1.000000000000000082E-05 ), #79, 'distance_accuracy_value', 'NONE');
#157 = CALENDAR_DATE ( 2021, 15, 11 ) ;
#158 = DIRECTION ( 'NONE',  ( -4.275831445896958607E-31, -1.000000000000000000, -1.224646799147353207E-16 ) ) ;
#159 = APPROVAL_PERSON_ORGANIZATION ( #126, #75, #191 ) ;
#160 = CIRCLE ( 'NONE', #152, 3.000000000000000000 ) ;
#161 = AXIS2_PLACEMENT_3D ( 'NONE', #103, #193, #166 ) ;
#162 = ORIENTED_EDGE ( 'NONE', *, *, #89, .F. ) ;
#163 = CC_DESIGN_DATE_AND_TIME_ASSIGNMENT ( #16, #164, ( #183 ) ) ;
#164 = DATE_TIME_ROLE ( 'classification_date' ) ;
#165 = EDGE_LOOP ( 'NONE', ( #71 ) ) ;
#166 = DIRECTION ( 'NONE',  ( 0.0000000000000000000, 1.000000000000000000, 0.0000000000000000000 ) ) ;
#167 = CLOSED_SHELL ( 'NONE', ( #176, #46, #113, #137 ) ) ;
#168 = AXIS2_PLACEMENT_3D ( 'NONE', #174, #26, #184 ) ;
#169 = CARTESIAN_POINT ( 'NONE',  ( -6.413747168845438786E-31, 2.249639673992786412E-32, -1.836970198721029934E-16 ) ) ;
#170 = FACE_OUTER_BOUND ( 'NONE', #21, .T. ) ;
#171 = VERTEX_POINT ( 'NONE', #61 ) ;
#172 = SECURITY_CLASSIFICATION_LEVEL ( 'unclassified' ) ;
#173 = DIRECTION ( 'NONE',  ( -3.491481338843133355E-15, 1.224646799147353207E-16, -1.000000000000000000 ) ) ;
#174 = CARTESIAN_POINT ( 'NONE',  ( 0.0000000000000000000, 0.0000000000000000000, 0.0000000000000000000 ) ) ;
#175 = DIRECTION ( 'NONE',  ( -3.491481338843133355E-15, 1.224646799147353207E-16, -1.000000000000000000 ) ) ;
#176 = ADVANCED_FACE ( 'NONE', ( #45 ), #123, .F. ) ;
#177 = APPROVAL ( #82, 'UNSPECIFIED' ) ;
#178 = PERSON_AND_ORGANIZATION_ROLE ( 'classification_officer' ) ;
#179 = DIRECTION ( 'NONE',  ( -3.491481338843133355E-15, 1.224646799147353207E-16, -1.000000000000000000 ) ) ;
#180 = CC_DESIGN_PERSON_AND_ORGANIZATION_ASSIGNMENT ( #155, #151, ( #76 ) ) ;
#181 = PERSON_AND_ORGANIZATION ( #132, #83 ) ;
#182 = LOCAL_TIME ( 9, 6, 5.000000000000000000, #73 ) ;
#183 = SECURITY_CLASSIFICATION ( '', '', #172 ) ;
#184 = DIRECTION ( 'NONE',  ( 1.000000000000000000, 0.0000000000000000000, 0.0000000000000000000 ) ) ;
#185 = CARTESIAN_POINT ( 'NONE',  ( 1.902857329669507616E-13, 2.999999999999995559, 54.50000000000000000 ) ) ;
#186 = PLANE ( 'NONE',  #104 ) ;
#187 = VERTEX_POINT ( 'NONE', #91 ) ;
#188 = CALENDAR_DATE ( 2021, 15, 11 ) ;
#189 = APPROVAL_PERSON_ORGANIZATION ( #117, #33, #100 ) ;
#190 = DIRECTION ( 'NONE',  ( -3.491481338843133355E-15, 1.224646799147353207E-16, -1.000000000000000000 ) ) ;
#191 = APPROVAL_ROLE ( '' ) ;
#192 = PRODUCT_RELATED_PRODUCT_CATEGORY ( 'detail', '', ( #76 ) ) ;
#193 = DIRECTION ( 'NONE',  ( -3.491481338843133355E-15, 1.224646799147353207E-16, -1.000000000000000000 ) ) ;
#194 = ORIENTED_EDGE ( 'NONE', *, *, #66, .T. ) ;
#195 = EDGE_LOOP ( 'NONE', ( #88 ) ) ;
#196 = PERSON_AND_ORGANIZATION ( #132, #83 ) ;
#197 = DIRECTION ( 'NONE',  ( -3.491481338843133355E-15, 1.224646799147353207E-16, -1.000000000000000000 ) ) ;
#198 = AXIS2_PLACEMENT_3D ( 'NONE', #9, #98, #99 ) ;
#199 = DIRECTION ( 'NONE',  ( 4.275831445896958607E-31, 1.000000000000000000, 1.224646799147353207E-16 ) ) ;
#200 = AXIS2_PLACEMENT_3D ( 'NONE', #48, #179, #112 ) ;
#201 = CARTESIAN_POINT ( 'NONE',  ( 1.920314736363723724E-13, -6.735557395310444193E-15, 55.00000000000000711 ) ) ;
#202 =( NAMED_UNIT ( * ) SI_UNIT ( $, .STERADIAN. ) SOLID_ANGLE_UNIT ( ) );
#203 = COORDINATED_UNIVERSAL_TIME_OFFSET ( 1, 0, .AHEAD. ) ;
ENDSEC;
END-ISO-10303-21;
