ISO-10303-21;
HEADER;
FILE_DESCRIPTION (( 'STEP AP203' ),
    '1' );
FILE_NAME ('334964.step',
    '2021-11-15T08:06:05',
    ( '' ),
    ( '' ),
    'SwSTEP 2.0',
    'SolidWorks 2019',
    '' );
FILE_SCHEMA (( 'CONFIG_CONTROL_DESIGN' ));
ENDSEC;

DATA;
#1 = ORIENTED_EDGE ( 'NONE', *, *, #157, .F. ) ;
#2 = EDGE_LOOP ( 'NONE', ( #18 ) ) ;
#3 = DIRECTION ( 'NONE',  ( 3.491481338843133355E-15, -0.0000000000000000000, 1.000000000000000000 ) ) ;
#4 = AXIS2_PLACEMENT_3D ( 'NONE', #212, #214, #84 ) ;
#5 = DIRECTION ( 'NONE',  ( 4.275831445896958607E-31, 1.000000000000000000, 1.224646799147353207E-16 ) ) ;
#6 =( NAMED_UNIT ( * ) SI_UNIT ( $, .STERADIAN. ) SOLID_ANGLE_UNIT ( ) );
#7 = DIRECTION ( 'NONE',  ( -3.491481338843133355E-15, 1.224646799147353207E-16, -1.000000000000000000 ) ) ;
#8 = VERTEX_POINT ( 'NONE', #21 ) ;
#9 = CALENDAR_DATE ( 2021, 15, 11 ) ;
#10 = MECHANICAL_CONTEXT ( 'NONE', #28, 'mechanical' ) ;
#11 = COORDINATED_UNIVERSAL_TIME_OFFSET ( 1, 0, .AHEAD. ) ;
#12 = ADVANCED_FACE ( 'NONE', ( #80 ), #16, .T. ) ;
#13 = PERSON_AND_ORGANIZATION ( #188, #39 ) ;
#14 = CIRCLE ( 'NONE', #228, 2.499999999999998668 ) ;
#15 = APPROVAL_DATE_TIME ( #25, #19 ) ;
#16 = PLANE ( 'NONE',  #52 ) ;
#17 = EDGE_LOOP ( 'NONE', ( #34 ) ) ;
#18 = ORIENTED_EDGE ( 'NONE', *, *, #159, .T. ) ;
#19 = APPROVAL ( #184, 'UNSPECIFIED' ) ;
#20 = CARTESIAN_POINT ( 'NONE',  ( 2.499999999999999556, 0.0000000000000000000, -9.463491426596244277E-15 ) ) ;
#21 = CARTESIAN_POINT ( 'NONE',  ( 2.500000000000034639, 0.0000000000000000000, 10.29999999999999183 ) ) ;
#22 = CIRCLE ( 'NONE', #216, 2.568148347421858269 ) ;
#23 = CC_DESIGN_PERSON_AND_ORGANIZATION_ASSIGNMENT ( #130, #145, ( #30 ) ) ;
#24 = PLANE ( 'NONE',  #65 ) ;
#25 = DATE_AND_TIME ( #218, #71 ) ;
#26 = AXIS2_PLACEMENT_3D ( 'NONE', #31, #94, #237 ) ;
#27 = PERSON_AND_ORGANIZATION ( #188, #39 ) ;
#28 = APPLICATION_CONTEXT ( 'configuration controlled 3d designs of mechanical parts and assemblies' ) ;
#29 = PERSON_AND_ORGANIZATION ( #188, #39 ) ;
#30 = SECURITY_CLASSIFICATION ( '', '', #46 ) ;
#31 = CARTESIAN_POINT ( 'NONE',  ( 0.0000000000000000000, 0.0000000000000000000, 0.0000000000000000000 ) ) ;
#32 = AXIS2_PLACEMENT_3D ( 'NONE', #62, #7, #158 ) ;
#33 = CIRCLE ( 'NONE', #176, 2.499999999999998668 ) ;
#34 = ORIENTED_EDGE ( 'NONE', *, *, #164, .F. ) ;
#35 = DIRECTION ( 'NONE',  ( 3.491481338843133355E-15, -1.224646799147353207E-16, 1.000000000000000000 ) ) ;
#36 = EDGE_LOOP ( 'NONE', ( #153 ) ) ;
#37 = ORIENTED_EDGE ( 'NONE', *, *, #73, .T. ) ;
#38 = FACE_OUTER_BOUND ( 'NONE', #50, .T. ) ;
#39 = ORGANIZATION ( 'UNSPECIFIED', 'UNSPECIFIED', '' ) ;
#40 = DIRECTION ( 'NONE',  ( 3.491481338843133355E-15, -0.0000000000000000000, 1.000000000000000000 ) ) ;
#41 = CARTESIAN_POINT ( 'NONE',  ( 4.339677514228200419E-14, 0.0000000000000000000, 12.42933039895928182 ) ) ;
#42 = DIRECTION ( 'NONE',  ( 3.491481338843133355E-15, -0.0000000000000000000, 1.000000000000000000 ) ) ;
#43 = APPROVAL ( #161, 'UNSPECIFIED' ) ;
#44 = DIRECTION ( 'NONE',  ( 3.491481338843133355E-15, -0.0000000000000000000, 1.000000000000000000 ) ) ;
#45 = PERSON_AND_ORGANIZATION_ROLE ( 'design_owner' ) ;
#46 = SECURITY_CLASSIFICATION_LEVEL ( 'unclassified' ) ;
#47 = CLOSED_SHELL ( 'NONE', ( #186, #181, #12 ) ) ;
#48 = APPROVAL_DATE_TIME ( #238, #43 ) ;
#49 = APPLICATION_PROTOCOL_DEFINITION ( 'international standard', 'config_control_design', 1994, #28 ) ;
#50 = EDGE_LOOP ( 'NONE', ( #174 ) ) ;
#51 = DIRECTION ( 'NONE',  ( 1.000000000000000000, 0.0000000000000000000, -3.469446951953616161E-15 ) ) ;
#52 = AXIS2_PLACEMENT_3D ( 'NONE', #122, #101, #154 ) ;
#53 = ORIENTED_EDGE ( 'NONE', *, *, #73, .F. ) ;
#54 = EDGE_LOOP ( 'NONE', ( #220 ) ) ;
#55 = ORIENTED_EDGE ( 'NONE', *, *, #159, .F. ) ;
#56 = CC_DESIGN_PERSON_AND_ORGANIZATION_ASSIGNMENT ( #29, #45, ( #87 ) ) ;
#57 = APPROVAL_PERSON_ORGANIZATION ( #27, #19, #111 ) ;
#58 = DIRECTION ( 'NONE',  ( 1.000000000000000000, 0.0000000000000000000, -3.377381757791135572E-15 ) ) ;
#59 = CLOSED_SHELL ( 'NONE', ( #121, #128, #82, #116, #146, #105 ) ) ;
#60 = DIRECTION ( 'NONE',  ( 3.491481338843133355E-15, -0.0000000000000000000, 1.000000000000000000 ) ) ;
#61 = LOCAL_TIME ( 9, 6, 5.000000000000000000, #75 ) ;
#62 = CARTESIAN_POINT ( 'NONE',  ( 1.902857329669507616E-13, -6.674325055353075041E-15, 54.50000000000000000 ) ) ;
#63 = CARTESIAN_POINT ( 'NONE',  ( 3.596225779008427356E-14, 2.249639673992784496E-32, 10.30000000000000071 ) ) ;
#64 =( LENGTH_UNIT ( ) NAMED_UNIT ( * ) SI_UNIT ( .MILLI., .METRE. ) );
#65 = AXIS2_PLACEMENT_3D ( 'NONE', #63, #102, #198 ) ;
#66 = MANIFOLD_SOLID_BREP ( 'Corps-Déplacer/Copier1[2]', #47 ) ;
#67 = PERSON_AND_ORGANIZATION ( #188, #39 ) ;
#68 = CC_DESIGN_APPROVAL ( #43, ( #235 ) ) ;
#69 = EDGE_CURVE ( 'NONE', #230, #230, #165, .T. ) ;
#70 = MANIFOLD_SOLID_BREP ( 'Corps-Déplacer/Copier1[1]', #59 ) ;
#71 = LOCAL_TIME ( 9, 6, 5.000000000000000000, #191 ) ;
#72 = DATE_AND_TIME ( #204, #61 ) ;
#73 = EDGE_CURVE ( 'NONE', #141, #141, #14, .T. ) ;
#74 = DATE_TIME_ROLE ( 'classification_date' ) ;
#75 = COORDINATED_UNIVERSAL_TIME_OFFSET ( 1, 0, .AHEAD. ) ;
#76 = EDGE_LOOP ( 'NONE', ( #55 ) ) ;
#77 = CARTESIAN_POINT ( 'NONE',  ( 3.596225779008427356E-14, 0.0000000000000000000, 10.30000000000000071 ) ) ;
#78 = CC_DESIGN_APPROVAL ( #19, ( #233 ) ) ;
#79 = FACE_OUTER_BOUND ( 'NONE', #221, .T. ) ;
#80 = FACE_OUTER_BOUND ( 'NONE', #222, .T. ) ;
#81 = AXIS2_PLACEMENT_3D ( 'NONE', #41, #44, #88 ) ;
#82 = ADVANCED_FACE ( 'NONE', ( #208 ), #171, .F. ) ;
#83 = DIRECTION ( 'NONE',  ( -4.275831445896958607E-31, -1.000000000000000000, -1.224646799147353207E-16 ) ) ;
#84 = DIRECTION ( 'NONE',  ( 0.0000000000000000000, 1.000000000000000000, 0.0000000000000000000 ) ) ;
#85 = UNCERTAINTY_MEASURE_WITH_UNIT (LENGTH_MEASURE( 1.000000000000000082E-05 ), #64, 'distance_accuracy_value', 'NONE');
#86 = DIRECTION ( 'NONE',  ( -3.491481338843133355E-15, 1.224646799147353207E-16, -1.000000000000000000 ) ) ;
#87 = PRODUCT ( '334964', '334964', '', ( #10 ) ) ;
#88 = DIRECTION ( 'NONE',  ( 1.000000000000000000, 0.0000000000000000000, -3.469446951953613006E-15 ) ) ;
#89 = DIRECTION ( 'NONE',  ( 1.000000000000000000, 0.0000000000000000000, -3.469446951953616161E-15 ) ) ;
#90 = DATE_AND_TIME ( #9, #173 ) ;
#91 = EDGE_CURVE ( 'NONE', #8, #8, #131, .T. ) ;
#92 = DATE_AND_TIME ( #203, #178 ) ;
#93 = CC_DESIGN_DATE_AND_TIME_ASSIGNMENT ( #90, #113, ( #233 ) ) ;
#94 = DIRECTION ( 'NONE',  ( 0.0000000000000000000, 0.0000000000000000000, 1.000000000000000000 ) ) ;
#95 = AXIS2_PLACEMENT_3D ( 'NONE', #243, #119, #172 ) ;
#96 = DIRECTION ( 'NONE',  ( -3.491481338843133355E-15, 1.224646799147353207E-16, -1.000000000000000000 ) ) ;
#97 = APPLICATION_CONTEXT ( 'configuration controlled 3d designs of mechanical parts and assemblies' ) ;
#98 = DIRECTION ( 'NONE',  ( 3.491481338843133355E-15, -0.0000000000000000000, 1.000000000000000000 ) ) ;
#99 = PRODUCT_RELATED_PRODUCT_CATEGORY ( 'detail', '', ( #87 ) ) ;
#100 = AXIS2_PLACEMENT_3D ( 'NONE', #137, #35, #83 ) ;
#101 = DIRECTION ( 'NONE',  ( -3.491481338843133355E-15, 1.224646799147353207E-16, -1.000000000000000000 ) ) ;
#102 = DIRECTION ( 'NONE',  ( 3.491481338843133355E-15, -1.224646799147353207E-16, 1.000000000000000000 ) ) ;
#103 = CARTESIAN_POINT ( 'NONE',  ( 2.568148347421896016, 0.0000000000000000000, 10.81763809020501732 ) ) ;
#104 = DIRECTION ( 'NONE',  ( 1.000000000000000000, 0.0000000000000000000, -3.491481338843133355E-15 ) ) ;
#105 = ADVANCED_FACE ( 'NONE', ( #134 ), #209, .F. ) ;
#106 = CONICAL_SURFACE ( 'NONE', #4, 3.000000000000002220, 0.7853981633974445042 ) ;
#107 = FACE_OUTER_BOUND ( 'NONE', #36, .T. ) ;
#108 = VERTEX_POINT ( 'NONE', #103 ) ;
#109 = APPLICATION_PROTOCOL_DEFINITION ( 'international standard', 'config_control_design', 1994, #97 ) ;
#110 = APPROVAL_STATUS ( 'not_yet_approved' ) ;
#111 = APPROVAL_ROLE ( '' ) ;
#112 = CC_DESIGN_PERSON_AND_ORGANIZATION_ASSIGNMENT ( #239, #187, ( #235 ) ) ;
#113 = DATE_TIME_ROLE ( 'creation_date' ) ;
#114 = CIRCLE ( 'NONE', #81, 3.000000000000000888 ) ;
#115 = EDGE_LOOP ( 'NONE', ( #37 ) ) ;
#116 = ADVANCED_FACE ( 'NONE', ( #225, #211 ), #231, .F. ) ;
#117 = EDGE_LOOP ( 'NONE', ( #210 ) ) ;
#118 =( GEOMETRIC_REPRESENTATION_CONTEXT ( 3 ) GLOBAL_UNCERTAINTY_ASSIGNED_CONTEXT ( ( #85 ) ) GLOBAL_UNIT_ASSIGNED_CONTEXT ( ( #64, #197, #6 ) ) REPRESENTATION_CONTEXT ( 'NONE', 'WORKASPACE' ) );
#119 = DIRECTION ( 'NONE',  ( -3.491481338843133355E-15, 1.224646799147353207E-16, -1.000000000000000000 ) ) ;
#120 = CARTESIAN_POINT ( 'NONE',  ( 3.596225779008427356E-14, 0.0000000000000000000, 10.30000000000000071 ) ) ;
#121 = ADVANCED_FACE ( 'NONE', ( #79, #107 ), #182, .T. ) ;
#122 = CARTESIAN_POINT ( 'NONE',  ( -6.413747168845438786E-31, 2.249639673992786412E-32, -1.836970198721029934E-16 ) ) ;
#123 = FACE_BOUND ( 'NONE', #115, .T. ) ;
#124 = FACE_OUTER_BOUND ( 'NONE', #193, .T. ) ;
#125 = FACE_BOUND ( 'NONE', #2, .T. ) ;
#126 = DIRECTION ( 'NONE',  ( 1.000000000000000000, 0.0000000000000000000, -3.491481338843133355E-15 ) ) ;
#127 = CARTESIAN_POINT ( 'NONE',  ( 3.000000000000044409, 0.0000000000000000000, 12.42933039895927116 ) ) ;
#128 = ADVANCED_FACE ( 'NONE', ( #123, #38 ), #106, .T. ) ;
#129 = PERSON_AND_ORGANIZATION_ROLE ( 'creator' ) ;
#130 = PERSON_AND_ORGANIZATION ( #188, #39 ) ;
#131 = CIRCLE ( 'NONE', #207, 2.499999999999998668 ) ;
#132 = AXIS2_PLACEMENT_3D ( 'NONE', #120, #98, #104 ) ;
#133 = CARTESIAN_POINT ( 'NONE',  ( 1.920314736363723724E-13, -6.735557395310444193E-15, 55.00000000000000711 ) ) ;
#134 = FACE_OUTER_BOUND ( 'NONE', #155, .T. ) ;
#135 = CARTESIAN_POINT ( 'NONE',  ( -2.565498867538175514E-30, 0.0000000000000000000, -7.347880794884119736E-16 ) ) ;
#136 = ORIENTED_EDGE ( 'NONE', *, *, #241, .T. ) ;
#137 = CARTESIAN_POINT ( 'NONE',  ( 3.596225779008427356E-14, 2.249639673992784496E-32, 10.30000000000000071 ) ) ;
#138 = CARTESIAN_POINT ( 'NONE',  ( 3.776958152230952521E-14, 0.0000000000000000000, 10.81763809020502620 ) ) ;
#139 = CARTESIAN_POINT ( 'NONE',  ( 1.902857329669507616E-13, 2.999999999999995559, 54.50000000000000000 ) ) ;
#140 = LOCAL_TIME ( 9, 6, 5.000000000000000000, #11 ) ;
#141 = VERTEX_POINT ( 'NONE', #199 ) ;
#142 = CARTESIAN_POINT ( 'NONE',  ( 3.596225779008427356E-14, 0.0000000000000000000, 10.30000000000000071 ) ) ;
#143 = APPROVAL ( #110, 'UNSPECIFIED' ) ;
#144 = CARTESIAN_POINT ( 'NONE',  ( 2.500000000000034639, 0.0000000000000000000, 10.29999999999999183 ) ) ;
#145 = PERSON_AND_ORGANIZATION_ROLE ( 'classification_officer' ) ;
#146 = ADVANCED_FACE ( 'NONE', ( #177, #125 ), #201, .T. ) ;
#147 = COORDINATED_UNIVERSAL_TIME_OFFSET ( 1, 0, .AHEAD. ) ;
#148 = PERSON_AND_ORGANIZATION ( #188, #39 ) ;
#149 = ADVANCED_BREP_SHAPE_REPRESENTATION ( '334964', ( #70, #66, #26 ), #118 ) ;
#150 = AXIS2_PLACEMENT_3D ( 'NONE', #156, #86, #5 ) ;
#151 = EDGE_LOOP ( 'NONE', ( #1 ) ) ;
#152 = CC_DESIGN_PERSON_AND_ORGANIZATION_ASSIGNMENT ( #67, #129, ( #235 ) ) ;
#153 = ORIENTED_EDGE ( 'NONE', *, *, #157, .T. ) ;
#154 = DIRECTION ( 'NONE',  ( 4.275831445896958607E-31, 1.000000000000000000, 1.224646799147353207E-16 ) ) ;
#155 = EDGE_LOOP ( 'NONE', ( #170 ) ) ;
#156 = CARTESIAN_POINT ( 'NONE',  ( 0.0000000000000000000, 0.0000000000000000000, 0.0000000000000000000 ) ) ;
#157 = EDGE_CURVE ( 'NONE', #202, #202, #114, .T. ) ;
#158 = DIRECTION ( 'NONE',  ( 0.0000000000000000000, 1.000000000000000000, 0.0000000000000000000 ) ) ;
#159 = EDGE_CURVE ( 'NONE', #108, #108, #22, .T. ) ;
#160 = CARTESIAN_POINT ( 'NONE',  ( 0.0000000000000000000, 0.0000000000000000000, 0.0000000000000000000 ) ) ;
#161 = APPROVAL_STATUS ( 'not_yet_approved' ) ;
#162 = CC_DESIGN_APPROVAL ( #143, ( #30 ) ) ;
#163 = APPROVAL_DATE_TIME ( #92, #143 ) ;
#164 = EDGE_CURVE ( 'NONE', #183, #183, #33, .T. ) ;
#165 = CIRCLE ( 'NONE', #205, 2.499999999999999556 ) ;
#166 = AXIS2_PLACEMENT_3D ( 'NONE', #160, #60, #126 ) ;
#167 = CALENDAR_DATE ( 2021, 15, 11 ) ;
#168 = CC_DESIGN_PERSON_AND_ORGANIZATION_ASSIGNMENT ( #169, #217, ( #233 ) ) ;
#169 = PERSON_AND_ORGANIZATION ( #188, #39 ) ;
#170 = ORIENTED_EDGE ( 'NONE', *, *, #91, .F. ) ;
#171 = PLANE ( 'NONE',  #95 ) ;
#172 = DIRECTION ( 'NONE',  ( 4.275831445896958607E-31, 1.000000000000000000, 1.224646799147353207E-16 ) ) ;
#173 = LOCAL_TIME ( 9, 6, 5.000000000000000000, #147 ) ;
#174 = ORIENTED_EDGE ( 'NONE', *, *, #241, .F. ) ;
#175 = DIRECTION ( 'NONE',  ( 3.491481338843133355E-15, -0.0000000000000000000, 1.000000000000000000 ) ) ;
#176 = AXIS2_PLACEMENT_3D ( 'NONE', #142, #42, #89 ) ;
#177 = FACE_OUTER_BOUND ( 'NONE', #151, .T. ) ;
#178 = LOCAL_TIME ( 9, 6, 5.000000000000000000, #219 ) ;
#179 = VERTEX_POINT ( 'NONE', #139 ) ;
#180 = CARTESIAN_POINT ( 'NONE',  ( 6.945754664276502823E-14, 0.0000000000000000000, 19.89343201409722539 ) ) ;
#181 = ADVANCED_FACE ( 'NONE', ( #200, #229 ), #215, .T. ) ;
#182 = CYLINDRICAL_SURFACE ( 'NONE', #150, 3.000000000000000888 ) ;
#183 = VERTEX_POINT ( 'NONE', #144 ) ;
#184 = APPROVAL_STATUS ( 'not_yet_approved' ) ;
#185 = APPROVAL_ROLE ( '' ) ;
#186 = ADVANCED_FACE ( 'NONE', ( #124 ), #24, .T. ) ;
#187 = PERSON_AND_ORGANIZATION_ROLE ( 'design_supplier' ) ;
#188 = PERSON ( 'UNSPECIFIED', 'UNSPECIFIED', 'UNSPECIFIED', ('UNSPECIFIED'), ('UNSPECIFIED'), ('UNSPECIFIED') ) ;
#189 = CIRCLE ( 'NONE', #32, 3.000000000000002220 ) ;
#190 = CC_DESIGN_DATE_AND_TIME_ASSIGNMENT ( #72, #74, ( #30 ) ) ;
#191 = COORDINATED_UNIVERSAL_TIME_OFFSET ( 1, 0, .AHEAD. ) ;
#192 = AXIS2_PLACEMENT_3D ( 'NONE', #180, #232, #226 ) ;
#193 = EDGE_LOOP ( 'NONE', ( #194 ) ) ;
#194 = ORIENTED_EDGE ( 'NONE', *, *, #164, .T. ) ;
#195 = DIRECTION ( 'NONE',  ( 1.000000000000000000, 0.0000000000000000000, -3.491481338843133355E-15 ) ) ;
#196 = EDGE_LOOP ( 'NONE', ( #53 ) ) ;
#197 =( NAMED_UNIT ( * ) PLANE_ANGLE_UNIT ( ) SI_UNIT ( $, .RADIAN. ) );
#198 = DIRECTION ( 'NONE',  ( -4.275831445896958607E-31, -1.000000000000000000, -1.224646799147353207E-16 ) ) ;
#199 = CARTESIAN_POINT ( 'NONE',  ( 1.920314736363723724E-13, 2.499999999999992006, 55.00000000000000711 ) ) ;
#200 = FACE_OUTER_BOUND ( 'NONE', #117, .T. ) ;
#201 = CONICAL_SURFACE ( 'NONE', #192, 4.999999999999999112, 0.2617993877991428575 ) ;
#202 = VERTEX_POINT ( 'NONE', #127 ) ;
#203 = CALENDAR_DATE ( 2021, 15, 11 ) ;
#204 = CALENDAR_DATE ( 2021, 15, 11 ) ;
#205 = AXIS2_PLACEMENT_3D ( 'NONE', #135, #175, #195 ) ;
#206 = APPROVAL_PERSON_ORGANIZATION ( #148, #143, #185 ) ;
#207 = AXIS2_PLACEMENT_3D ( 'NONE', #77, #3, #51 ) ;
#208 = FACE_OUTER_BOUND ( 'NONE', #196, .T. ) ;
#209 = PLANE ( 'NONE',  #100 ) ;
#210 = ORIENTED_EDGE ( 'NONE', *, *, #69, .T. ) ;
#211 = FACE_OUTER_BOUND ( 'NONE', #76, .T. ) ;
#212 = CARTESIAN_POINT ( 'NONE',  ( 1.902857329669507616E-13, -6.674325055353075041E-15, 54.50000000000000000 ) ) ;
#213 = APPROVAL_PERSON_ORGANIZATION ( #13, #43, #234 ) ;
#214 = DIRECTION ( 'NONE',  ( -3.491481338843133355E-15, 1.224646799147353207E-16, -1.000000000000000000 ) ) ;
#215 = CYLINDRICAL_SURFACE ( 'NONE', #166, 2.499999999999999112 ) ;
#216 = AXIS2_PLACEMENT_3D ( 'NONE', #138, #40, #58 ) ;
#217 = PERSON_AND_ORGANIZATION_ROLE ( 'creator' ) ;
#218 = CALENDAR_DATE ( 2021, 15, 11 ) ;
#219 = COORDINATED_UNIVERSAL_TIME_OFFSET ( 1, 0, .AHEAD. ) ;
#220 = ORIENTED_EDGE ( 'NONE', *, *, #91, .T. ) ;
#221 = EDGE_LOOP ( 'NONE', ( #136 ) ) ;
#222 = EDGE_LOOP ( 'NONE', ( #240 ) ) ;
#223 = DIRECTION ( 'NONE',  ( 0.0000000000000000000, 1.000000000000000000, 0.0000000000000000000 ) ) ;
#224 = PRODUCT_DEFINITION_SHAPE ( 'NONE', 'NONE',  #233 ) ;
#225 = FACE_OUTER_BOUND ( 'NONE', #54, .T. ) ;
#226 = DIRECTION ( 'NONE',  ( 1.000000000000000000, 0.0000000000000000000, -3.469446951953614978E-15 ) ) ;
#227 = DESIGN_CONTEXT ( 'detailed design', #97, 'design' ) ;
#228 = AXIS2_PLACEMENT_3D ( 'NONE', #133, #96, #223 ) ;
#229 = FACE_OUTER_BOUND ( 'NONE', #17, .T. ) ;
#230 = VERTEX_POINT ( 'NONE', #20 ) ;
#231 = TOROIDAL_SURFACE ( 'NONE', #132, 4.499999999999999112, 2.000000000000000000 ) ;
#232 = DIRECTION ( 'NONE',  ( 3.491481338843133355E-15, -0.0000000000000000000, 1.000000000000000000 ) ) ;
#233 = PRODUCT_DEFINITION ( 'UNKNOWN', '', #235, #227 ) ;
#234 = APPROVAL_ROLE ( '' ) ;
#235 = PRODUCT_DEFINITION_FORMATION_WITH_SPECIFIED_SOURCE ( 'ANY', '', #87, .NOT_KNOWN. ) ;
#236 = SHAPE_DEFINITION_REPRESENTATION ( #224, #149 ) ;
#237 = DIRECTION ( 'NONE',  ( 1.000000000000000000, 0.0000000000000000000, 0.0000000000000000000 ) ) ;
#238 = DATE_AND_TIME ( #167, #140 ) ;
#239 = PERSON_AND_ORGANIZATION ( #188, #39 ) ;
#240 = ORIENTED_EDGE ( 'NONE', *, *, #69, .F. ) ;
#241 = EDGE_CURVE ( 'NONE', #179, #179, #189, .T. ) ;
#242 = CC_DESIGN_SECURITY_CLASSIFICATION ( #30, ( #235 ) ) ;
#243 = CARTESIAN_POINT ( 'NONE',  ( 1.920314736363723724E-13, -8.310224236210339646E-31, 55.00000000000000711 ) ) ;
ENDSEC;
END-ISO-10303-21;
