ISO-10303-21;
HEADER;
FILE_DESCRIPTION (( 'STEP AP203' ),
    '1' );
FILE_NAME ('334963.step',
    '2021-11-15T08:06:04',
    ( '' ),
    ( '' ),
    'SwSTEP 2.0',
    'SolidWorks 2019',
    '' );
FILE_SCHEMA (( 'CONFIG_CONTROL_DESIGN' ));
ENDSEC;

DATA;
#1 = AXIS2_PLACEMENT_3D ( 'NONE', #133, #209, #114 ) ;
#2 = FACE_OUTER_BOUND ( 'NONE', #122, .T. ) ;
#3 = PERSON_AND_ORGANIZATION ( #7, #36 ) ;
#4 =( GEOMETRIC_REPRESENTATION_CONTEXT ( 3 ) GLOBAL_UNCERTAINTY_ASSIGNED_CONTEXT ( ( #166 ) ) GLOBAL_UNIT_ASSIGNED_CONTEXT ( ( #116, #210, #132 ) ) REPRESENTATION_CONTEXT ( 'NONE', 'WORKASPACE' ) );
#5 = AXIS2_PLACEMENT_3D ( 'NONE', #159, #117, #136 ) ;
#6 = ADVANCED_FACE ( 'NONE', ( #220, #44 ), #126, .T. ) ;
#7 = PERSON ( 'UNSPECIFIED', 'UNSPECIFIED', 'UNSPECIFIED', ('UNSPECIFIED'), ('UNSPECIFIED'), ('UNSPECIFIED') ) ;
#8 = DIRECTION ( 'NONE',  ( -4.275831445896958607E-31, -1.000000000000000000, -1.224646799147353207E-16 ) ) ;
#9 = CARTESIAN_POINT ( 'NONE',  ( 4.292900533971649507E-14, 0.0000000000000000000, 12.29535580274376727 ) ) ;
#10 = COORDINATED_UNIVERSAL_TIME_OFFSET ( 1, 0, .AHEAD. ) ;
#11 = DIRECTION ( 'NONE',  ( 1.000000000000000000, 0.0000000000000000000, 0.0000000000000000000 ) ) ;
#12 = AXIS2_PLACEMENT_3D ( 'NONE', #9, #68, #46 ) ;
#13 = PLANE ( 'NONE',  #103 ) ;
#14 = PERSON_AND_ORGANIZATION_ROLE ( 'creator' ) ;
#15 = PERSON_AND_ORGANIZATION ( #7, #36 ) ;
#16 = DATE_AND_TIME ( #29, #135 ) ;
#17 = FACE_OUTER_BOUND ( 'NONE', #83, .T. ) ;
#18 = MANIFOLD_SOLID_BREP ( 'Corps-Déplacer/Copier1[1]', #58 ) ;
#19 = DIRECTION ( 'NONE',  ( -3.491481338843133355E-15, 1.224646799147353207E-16, -1.000000000000000000 ) ) ;
#20 = CYLINDRICAL_SURFACE ( 'NONE', #34, 1.999999999999999556 ) ;
#21 = ADVANCED_FACE ( 'NONE', ( #225, #127 ), #57, .F. ) ;
#22 = APPROVAL_PERSON_ORGANIZATION ( #170, #33, #73 ) ;
#23 = PRODUCT_DEFINITION ( 'UNKNOWN', '', #139, #70 ) ;
#24 = ORIENTED_EDGE ( 'NONE', *, *, #218, .T. ) ;
#25 = EDGE_LOOP ( 'NONE', ( #234 ) ) ;
#26 = APPLICATION_PROTOCOL_DEFINITION ( 'international standard', 'config_control_design', 1994, #231 ) ;
#27 = VERTEX_POINT ( 'NONE', #150 ) ;
#28 = CIRCLE ( 'NONE', #85, 2.499999999999998668 ) ;
#29 = CALENDAR_DATE ( 2021, 15, 11 ) ;
#30 = DIRECTION ( 'NONE',  ( 1.000000000000000000, 0.0000000000000000000, -3.355123878109231823E-15 ) ) ;
#31 = DIRECTION ( 'NONE',  ( 4.275831445896958607E-31, 1.000000000000000000, 1.224646799147353207E-16 ) ) ;
#32 = DATE_AND_TIME ( #208, #190 ) ;
#33 = APPROVAL ( #243, 'UNSPECIFIED' ) ;
#34 = AXIS2_PLACEMENT_3D ( 'NONE', #76, #72, #96 ) ;
#35 = ADVANCED_BREP_SHAPE_REPRESENTATION ( '334963', ( #18, #97, #101 ), #4 ) ;
#36 = ORGANIZATION ( 'UNSPECIFIED', 'UNSPECIFIED', '' ) ;
#37 = CIRCLE ( 'NONE', #233, 1.999999999999999112 ) ;
#38 = CARTESIAN_POINT ( 'NONE',  ( 2.897929511239800685E-14, 0.0000000000000000000, 8.300000000000000711 ) ) ;
#39 = ORIENTED_EDGE ( 'NONE', *, *, #241, .T. ) ;
#40 = EDGE_LOOP ( 'NONE', ( #42 ) ) ;
#41 = EDGE_CURVE ( 'NONE', #27, #27, #54, .T. ) ;
#42 = ORIENTED_EDGE ( 'NONE', *, *, #195, .F. ) ;
#43 = AXIS2_PLACEMENT_3D ( 'NONE', #137, #92, #95 ) ;
#44 = FACE_OUTER_BOUND ( 'NONE', #143, .T. ) ;
#45 = ORIENTED_EDGE ( 'NONE', *, *, #195, .T. ) ;
#46 = DIRECTION ( 'NONE',  ( 1.000000000000000000, 0.0000000000000000000, -3.469446951953613006E-15 ) ) ;
#47 = ORIENTED_EDGE ( 'NONE', *, *, #41, .T. ) ;
#48 = PERSON_AND_ORGANIZATION ( #7, #36 ) ;
#49 = CARTESIAN_POINT ( 'NONE',  ( 2.000000000000028422, 0.0000000000000000000, 8.299999999999993605 ) ) ;
#50 = PERSON_AND_ORGANIZATION_ROLE ( 'classification_officer' ) ;
#51 = CALENDAR_DATE ( 2021, 15, 11 ) ;
#52 = CC_DESIGN_PERSON_AND_ORGANIZATION_ASSIGNMENT ( #129, #105, ( #139 ) ) ;
#53 = CC_DESIGN_SECURITY_CLASSIFICATION ( #60, ( #139 ) ) ;
#54 = CIRCLE ( 'NONE', #12, 3.000000000000000888 ) ;
#55 = VERTEX_POINT ( 'NONE', #113 ) ;
#56 = DIRECTION ( 'NONE',  ( 3.491481338843133355E-15, -0.0000000000000000000, 1.000000000000000000 ) ) ;
#57 = TOROIDAL_SURFACE ( 'NONE', #151, 4.000000000000000000, 2.000000000000000000 ) ;
#58 = CLOSED_SHELL ( 'NONE', ( #6, #224, #99, #21, #232, #207 ) ) ;
#59 = CARTESIAN_POINT ( 'NONE',  ( 2.000000000000028422, 0.0000000000000000000, 8.299999999999993605 ) ) ;
#60 = SECURITY_CLASSIFICATION ( '', '', #223 ) ;
#61 = APPLICATION_CONTEXT ( 'configuration controlled 3d designs of mechanical parts and assemblies' ) ;
#62 = CIRCLE ( 'NONE', #215, 1.999999999999999112 ) ;
#63 = EDGE_CURVE ( 'NONE', #242, #242, #28, .T. ) ;
#64 = ORIENTED_EDGE ( 'NONE', *, *, #235, .T. ) ;
#65 = ORIENTED_EDGE ( 'NONE', *, *, #235, .F. ) ;
#66 = DIRECTION ( 'NONE',  ( 1.000000000000000000, 0.0000000000000000000, -3.469446951953615767E-15 ) ) ;
#67 = CC_DESIGN_DATE_AND_TIME_ASSIGNMENT ( #144, #183, ( #23 ) ) ;
#68 = DIRECTION ( 'NONE',  ( 3.491481338843133355E-15, -0.0000000000000000000, 1.000000000000000000 ) ) ;
#69 = MECHANICAL_CONTEXT ( 'NONE', #231, 'mechanical' ) ;
#70 = DESIGN_CONTEXT ( 'detailed design', #61, 'design' ) ;
#71 = CALENDAR_DATE ( 2021, 15, 11 ) ;
#72 = DIRECTION ( 'NONE',  ( 3.491481338843133355E-15, -0.0000000000000000000, 1.000000000000000000 ) ) ;
#73 = APPROVAL_ROLE ( '' ) ;
#74 = CC_DESIGN_PERSON_AND_ORGANIZATION_ASSIGNMENT ( #48, #201, ( #139 ) ) ;
#75 = VERTEX_POINT ( 'NONE', #59 ) ;
#76 = CARTESIAN_POINT ( 'NONE',  ( 0.0000000000000000000, 0.0000000000000000000, 0.0000000000000000000 ) ) ;
#77 = LOCAL_TIME ( 9, 6, 4.000000000000000000, #184 ) ;
#78 = CONICAL_SURFACE ( 'NONE', #5, 3.000000000000002220, 0.7853981633974445042 ) ;
#79 = CIRCLE ( 'NONE', #140, 2.000000000000000000 ) ;
#80 = DIRECTION ( 'NONE',  ( 3.491481338843133355E-15, -0.0000000000000000000, 1.000000000000000000 ) ) ;
#81 = EDGE_LOOP ( 'NONE', ( #141 ) ) ;
#82 = EDGE_LOOP ( 'NONE', ( #236 ) ) ;
#83 = EDGE_LOOP ( 'NONE', ( #39 ) ) ;
#84 = PERSON_AND_ORGANIZATION ( #7, #36 ) ;
#85 = AXIS2_PLACEMENT_3D ( 'NONE', #128, #202, #107 ) ;
#86 = FACE_OUTER_BOUND ( 'NONE', #25, .T. ) ;
#87 = CARTESIAN_POINT ( 'NONE',  ( 1.920314736363723724E-13, -8.310224236210339646E-31, 55.00000000000000711 ) ) ;
#88 = VERTEX_POINT ( 'NONE', #49 ) ;
#89 = DIRECTION ( 'NONE',  ( 3.491481338843133355E-15, -0.0000000000000000000, 1.000000000000000000 ) ) ;
#90 = DATE_TIME_ROLE ( 'classification_date' ) ;
#91 = SHAPE_DEFINITION_REPRESENTATION ( #125, #35 ) ;
#92 = DIRECTION ( 'NONE',  ( 3.491481338843133355E-15, -1.224646799147353207E-16, 1.000000000000000000 ) ) ;
#93 = AXIS2_PLACEMENT_3D ( 'NONE', #186, #19, #94 ) ;
#94 = DIRECTION ( 'NONE',  ( 0.0000000000000000000, 1.000000000000000000, 0.0000000000000000000 ) ) ;
#95 = DIRECTION ( 'NONE',  ( -4.275831445896958607E-31, -1.000000000000000000, -1.224646799147353207E-16 ) ) ;
#96 = DIRECTION ( 'NONE',  ( 1.000000000000000000, 0.0000000000000000000, -3.491481338843133355E-15 ) ) ;
#97 = MANIFOLD_SOLID_BREP ( 'Corps-Déplacer/Copier1[2]', #199 ) ;
#98 = FACE_BOUND ( 'NONE', #123, .T. ) ;
#99 = ADVANCED_FACE ( 'NONE', ( #182 ), #13, .F. ) ;
#100 = EDGE_LOOP ( 'NONE', ( #65 ) ) ;
#101 = AXIS2_PLACEMENT_3D ( 'NONE', #152, #110, #11 ) ;
#102 = DIRECTION ( 'NONE',  ( 3.491481338843133355E-15, -0.0000000000000000000, 1.000000000000000000 ) ) ;
#103 = AXIS2_PLACEMENT_3D ( 'NONE', #87, #187, #31 ) ;
#104 = CC_DESIGN_PERSON_AND_ORGANIZATION_ASSIGNMENT ( #168, #240, ( #213 ) ) ;
#105 = PERSON_AND_ORGANIZATION_ROLE ( 'design_supplier' ) ;
#106 = APPROVAL_PERSON_ORGANIZATION ( #84, #185, #238 ) ;
#107 = DIRECTION ( 'NONE',  ( 0.0000000000000000000, 1.000000000000000000, 0.0000000000000000000 ) ) ;
#108 = PERSON_AND_ORGANIZATION ( #7, #36 ) ;
#109 = PLANE ( 'NONE',  #43 ) ;
#110 = DIRECTION ( 'NONE',  ( 0.0000000000000000000, 0.0000000000000000000, 1.000000000000000000 ) ) ;
#111 = PLANE ( 'NONE',  #1 ) ;
#112 = APPROVAL_DATE_TIME ( #229, #33 ) ;
#113 = CARTESIAN_POINT ( 'NONE',  ( 2.000000000000000000, 0.0000000000000000000, -7.717750757174679177E-15 ) ) ;
#114 = DIRECTION ( 'NONE',  ( 4.275831445896958607E-31, 1.000000000000000000, 1.224646799147353207E-16 ) ) ;
#115 = AXIS2_PLACEMENT_3D ( 'NONE', #118, #56, #189 ) ;
#116 =( LENGTH_UNIT ( ) NAMED_UNIT ( * ) SI_UNIT ( .MILLI., .METRE. ) );
#117 = DIRECTION ( 'NONE',  ( -3.491481338843133355E-15, 1.224646799147353207E-16, -1.000000000000000000 ) ) ;
#118 = CARTESIAN_POINT ( 'NONE',  ( 6.898977684019953804E-14, 0.0000000000000000000, 19.75945741788171617 ) ) ;
#119 = CC_DESIGN_APPROVAL ( #142, ( #139 ) ) ;
#120 = AXIS2_PLACEMENT_3D ( 'NONE', #155, #165, #30 ) ;
#121 = CARTESIAN_POINT ( 'NONE',  ( 1.902857329669507616E-13, 2.999999999999995559, 54.50000000000000000 ) ) ;
#122 = EDGE_LOOP ( 'NONE', ( #178 ) ) ;
#123 = EDGE_LOOP ( 'NONE', ( #198 ) ) ;
#124 = DIRECTION ( 'NONE',  ( 1.000000000000000000, 0.0000000000000000000, -3.491481338843133355E-15 ) ) ;
#125 = PRODUCT_DEFINITION_SHAPE ( 'NONE', 'NONE',  #23 ) ;
#126 = CYLINDRICAL_SURFACE ( 'NONE', #191, 3.000000000000000888 ) ;
#127 = FACE_OUTER_BOUND ( 'NONE', #40, .T. ) ;
#128 = CARTESIAN_POINT ( 'NONE',  ( 1.920314736363723724E-13, -6.735557395310444193E-15, 55.00000000000000711 ) ) ;
#129 = PERSON_AND_ORGANIZATION ( #7, #36 ) ;
#130 = COORDINATED_UNIVERSAL_TIME_OFFSET ( 1, 0, .AHEAD. ) ;
#131 = CARTESIAN_POINT ( 'NONE',  ( 2.897929511239800685E-14, 2.249639673992785043E-32, 8.300000000000000711 ) ) ;
#132 =( NAMED_UNIT ( * ) SI_UNIT ( $, .STERADIAN. ) SOLID_ANGLE_UNIT ( ) );
#133 = CARTESIAN_POINT ( 'NONE',  ( -6.413747168845438786E-31, 2.249639673992786412E-32, -1.836970198721029934E-16 ) ) ;
#134 = COORDINATED_UNIVERSAL_TIME_OFFSET ( 1, 0, .AHEAD. ) ;
#135 = LOCAL_TIME ( 9, 6, 4.000000000000000000, #130 ) ;
#136 = DIRECTION ( 'NONE',  ( 0.0000000000000000000, 1.000000000000000000, 0.0000000000000000000 ) ) ;
#137 = CARTESIAN_POINT ( 'NONE',  ( 2.897929511239800685E-14, 2.249639673992785043E-32, 8.300000000000000711 ) ) ;
#138 = FACE_OUTER_BOUND ( 'NONE', #194, .T. ) ;
#139 = PRODUCT_DEFINITION_FORMATION_WITH_SPECIFIED_SOURCE ( 'ANY', '', #213, .NOT_KNOWN. ) ;
#140 = AXIS2_PLACEMENT_3D ( 'NONE', #173, #102, #175 ) ;
#141 = ORIENTED_EDGE ( 'NONE', *, *, #218, .F. ) ;
#142 = APPROVAL ( #206, 'UNSPECIFIED' ) ;
#143 = EDGE_LOOP ( 'NONE', ( #47 ) ) ;
#144 = DATE_AND_TIME ( #71, #156 ) ;
#145 = APPLICATION_PROTOCOL_DEFINITION ( 'international standard', 'config_control_design', 1994, #61 ) ;
#146 = CC_DESIGN_PERSON_AND_ORGANIZATION_ASSIGNMENT ( #3, #50, ( #60 ) ) ;
#147 = CARTESIAN_POINT ( 'NONE',  ( 2.068148347421890243, 0.0000000000000000000, 8.817638090205019097 ) ) ;
#148 = FACE_OUTER_BOUND ( 'NONE', #100, .T. ) ;
#149 = APPROVAL_ROLE ( '' ) ;
#150 = CARTESIAN_POINT ( 'NONE',  ( 3.000000000000043965, 0.0000000000000000000, 12.29535580274375661 ) ) ;
#151 = AXIS2_PLACEMENT_3D ( 'NONE', #217, #89, #124 ) ;
#152 = CARTESIAN_POINT ( 'NONE',  ( 0.0000000000000000000, 0.0000000000000000000, 0.0000000000000000000 ) ) ;
#153 = ADVANCED_FACE ( 'NONE', ( #205, #2 ), #20, .T. ) ;
#154 = APPROVAL_DATE_TIME ( #221, #142 ) ;
#155 = CARTESIAN_POINT ( 'NONE',  ( 3.078661884462325850E-14, 0.0000000000000000000, 8.817638090205026202 ) ) ;
#156 = LOCAL_TIME ( 9, 6, 4.000000000000000000, #134 ) ;
#157 = AXIS2_PLACEMENT_3D ( 'NONE', #131, #188, #8 ) ;
#158 = ADVANCED_FACE ( 'NONE', ( #148 ), #111, .T. ) ;
#159 = CARTESIAN_POINT ( 'NONE',  ( 1.902857329669507616E-13, -6.674325055353075041E-15, 54.50000000000000000 ) ) ;
#160 = PRODUCT_RELATED_PRODUCT_CATEGORY ( 'detail', '', ( #213 ) ) ;
#161 = EDGE_LOOP ( 'NONE', ( #24 ) ) ;
#162 = LOCAL_TIME ( 9, 6, 4.000000000000000000, #226 ) ;
#163 = CC_DESIGN_DATE_AND_TIME_ASSIGNMENT ( #16, #90, ( #60 ) ) ;
#164 = APPROVAL_DATE_TIME ( #32, #185 ) ;
#165 = DIRECTION ( 'NONE',  ( 3.491481338843133355E-15, -0.0000000000000000000, 1.000000000000000000 ) ) ;
#166 = UNCERTAINTY_MEASURE_WITH_UNIT (LENGTH_MEASURE( 1.000000000000000082E-05 ), #116, 'distance_accuracy_value', 'NONE');
#167 = FACE_OUTER_BOUND ( 'NONE', #81, .T. ) ;
#168 = PERSON_AND_ORGANIZATION ( #7, #36 ) ;
#169 = PLANE ( 'NONE',  #157 ) ;
#170 = PERSON_AND_ORGANIZATION ( #7, #36 ) ;
#171 = CIRCLE ( 'NONE', #93, 3.000000000000002220 ) ;
#172 = APPROVAL_PERSON_ORGANIZATION ( #15, #142, #149 ) ;
#173 = CARTESIAN_POINT ( 'NONE',  ( -2.565498867538175514E-30, 0.0000000000000000000, -7.347880794884119736E-16 ) ) ;
#174 = CIRCLE ( 'NONE', #120, 2.068148347421859601 ) ;
#175 = DIRECTION ( 'NONE',  ( 1.000000000000000000, 0.0000000000000000000, -3.491481338843133355E-15 ) ) ;
#176 = EDGE_CURVE ( 'NONE', #196, #196, #171, .T. ) ;
#177 = EDGE_LOOP ( 'NONE', ( #45 ) ) ;
#178 = ORIENTED_EDGE ( 'NONE', *, *, #241, .F. ) ;
#179 = APPROVAL_STATUS ( 'not_yet_approved' ) ;
#180 = ADVANCED_FACE ( 'NONE', ( #17 ), #109, .T. ) ;
#181 = CC_DESIGN_APPROVAL ( #185, ( #23 ) ) ;
#182 = FACE_OUTER_BOUND ( 'NONE', #239, .T. ) ;
#183 = DATE_TIME_ROLE ( 'creation_date' ) ;
#184 = COORDINATED_UNIVERSAL_TIME_OFFSET ( 1, 0, .AHEAD. ) ;
#185 = APPROVAL ( #179, 'UNSPECIFIED' ) ;
#186 = CARTESIAN_POINT ( 'NONE',  ( 1.902857329669507616E-13, -6.674325055353075041E-15, 54.50000000000000000 ) ) ;
#187 = DIRECTION ( 'NONE',  ( -3.491481338843133355E-15, 1.224646799147353207E-16, -1.000000000000000000 ) ) ;
#188 = DIRECTION ( 'NONE',  ( 3.491481338843133355E-15, -1.224646799147353207E-16, 1.000000000000000000 ) ) ;
#189 = DIRECTION ( 'NONE',  ( 1.000000000000000000, 0.0000000000000000000, -3.469446951953614978E-15 ) ) ;
#190 = LOCAL_TIME ( 9, 6, 4.000000000000000000, #10 ) ;
#191 = AXIS2_PLACEMENT_3D ( 'NONE', #200, #214, #193 ) ;
#192 = VERTEX_POINT ( 'NONE', #147 ) ;
#193 = DIRECTION ( 'NONE',  ( 4.275831445896958607E-31, 1.000000000000000000, 1.224646799147353207E-16 ) ) ;
#194 = EDGE_LOOP ( 'NONE', ( #203 ) ) ;
#195 = EDGE_CURVE ( 'NONE', #192, #192, #174, .T. ) ;
#196 = VERTEX_POINT ( 'NONE', #121 ) ;
#197 = ORIENTED_EDGE ( 'NONE', *, *, #63, .F. ) ;
#198 = ORIENTED_EDGE ( 'NONE', *, *, #63, .T. ) ;
#199 = CLOSED_SHELL ( 'NONE', ( #180, #153, #158 ) ) ;
#200 = CARTESIAN_POINT ( 'NONE',  ( 0.0000000000000000000, 0.0000000000000000000, 0.0000000000000000000 ) ) ;
#201 = PERSON_AND_ORGANIZATION_ROLE ( 'creator' ) ;
#202 = DIRECTION ( 'NONE',  ( -3.491481338843133355E-15, 1.224646799147353207E-16, -1.000000000000000000 ) ) ;
#203 = ORIENTED_EDGE ( 'NONE', *, *, #176, .F. ) ;
#204 = CARTESIAN_POINT ( 'NONE',  ( 2.897929511239800685E-14, 0.0000000000000000000, 8.300000000000000711 ) ) ;
#205 = FACE_OUTER_BOUND ( 'NONE', #216, .T. ) ;
#206 = APPROVAL_STATUS ( 'not_yet_approved' ) ;
#207 = ADVANCED_FACE ( 'NONE', ( #167 ), #169, .F. ) ;
#208 = CALENDAR_DATE ( 2021, 15, 11 ) ;
#209 = DIRECTION ( 'NONE',  ( -3.491481338843133355E-15, 1.224646799147353207E-16, -1.000000000000000000 ) ) ;
#210 =( NAMED_UNIT ( * ) PLANE_ANGLE_UNIT ( ) SI_UNIT ( $, .RADIAN. ) );
#211 = CC_DESIGN_PERSON_AND_ORGANIZATION_ASSIGNMENT ( #108, #14, ( #23 ) ) ;
#212 = DIRECTION ( 'NONE',  ( 1.000000000000000000, 0.0000000000000000000, -3.469446951953615767E-15 ) ) ;
#213 = PRODUCT ( '334963', '334963', '', ( #69 ) ) ;
#214 = DIRECTION ( 'NONE',  ( -3.491481338843133355E-15, 1.224646799147353207E-16, -1.000000000000000000 ) ) ;
#215 = AXIS2_PLACEMENT_3D ( 'NONE', #204, #237, #66 ) ;
#216 = EDGE_LOOP ( 'NONE', ( #64 ) ) ;
#217 = CARTESIAN_POINT ( 'NONE',  ( 2.897929511239800685E-14, 0.0000000000000000000, 8.300000000000000711 ) ) ;
#218 = EDGE_CURVE ( 'NONE', #88, #88, #37, .T. ) ;
#219 = CONICAL_SURFACE ( 'NONE', #115, 4.999999999999999112, 0.2617993877991426910 ) ;
#220 = FACE_OUTER_BOUND ( 'NONE', #82, .T. ) ;
#221 = DATE_AND_TIME ( #222, #77 ) ;
#222 = CALENDAR_DATE ( 2021, 15, 11 ) ;
#223 = SECURITY_CLASSIFICATION_LEVEL ( 'unclassified' ) ;
#224 = ADVANCED_FACE ( 'NONE', ( #98, #138 ), #78, .T. ) ;
#225 = FACE_OUTER_BOUND ( 'NONE', #161, .T. ) ;
#226 = COORDINATED_UNIVERSAL_TIME_OFFSET ( 1, 0, .AHEAD. ) ;
#227 = CARTESIAN_POINT ( 'NONE',  ( 1.920314736363723724E-13, 2.499999999999992006, 55.00000000000000711 ) ) ;
#228 = FACE_BOUND ( 'NONE', #177, .T. ) ;
#229 = DATE_AND_TIME ( #51, #162 ) ;
#230 = CC_DESIGN_APPROVAL ( #33, ( #60 ) ) ;
#231 = APPLICATION_CONTEXT ( 'configuration controlled 3d designs of mechanical parts and assemblies' ) ;
#232 = ADVANCED_FACE ( 'NONE', ( #86, #228 ), #219, .T. ) ;
#233 = AXIS2_PLACEMENT_3D ( 'NONE', #38, #80, #212 ) ;
#234 = ORIENTED_EDGE ( 'NONE', *, *, #41, .F. ) ;
#235 = EDGE_CURVE ( 'NONE', #55, #55, #79, .T. ) ;
#236 = ORIENTED_EDGE ( 'NONE', *, *, #176, .T. ) ;
#237 = DIRECTION ( 'NONE',  ( 3.491481338843133355E-15, -0.0000000000000000000, 1.000000000000000000 ) ) ;
#238 = APPROVAL_ROLE ( '' ) ;
#239 = EDGE_LOOP ( 'NONE', ( #197 ) ) ;
#240 = PERSON_AND_ORGANIZATION_ROLE ( 'design_owner' ) ;
#241 = EDGE_CURVE ( 'NONE', #75, #75, #62, .T. ) ;
#242 = VERTEX_POINT ( 'NONE', #227 ) ;
#243 = APPROVAL_STATUS ( 'not_yet_approved' ) ;
ENDSEC;
END-ISO-10303-21;
