ISO-10303-21;
HEADER;
FILE_DESCRIPTION (( 'STEP AP203' ),
    '1' );
FILE_NAME ('334962.step',
    '2021-11-15T08:06:04',
    ( '' ),
    ( '' ),
    'SwSTEP 2.0',
    'SolidWorks 2019',
    '' );
FILE_SCHEMA (( 'CONFIG_CONTROL_DESIGN' ));
ENDSEC;

DATA;
#1 = AXIS2_PLACEMENT_3D ( 'NONE', #71, #27, #231 ) ;
#2 = DIRECTION ( 'NONE',  ( -3.491481338843133355E-15, 1.224646799147353207E-16, -1.000000000000000000 ) ) ;
#3 = EDGE_LOOP ( 'NONE', ( #126 ) ) ;
#4 = CARTESIAN_POINT ( 'NONE',  ( 1.500000000000021094, 0.0000000000000000000, 6.299999999999994493 ) ) ;
#5 = CC_DESIGN_DATE_AND_TIME_ASSIGNMENT ( #173, #24, ( #58 ) ) ;
#6 =( NAMED_UNIT ( * ) PLANE_ANGLE_UNIT ( ) SI_UNIT ( $, .RADIAN. ) );
#7 = CARTESIAN_POINT ( 'NONE',  ( 2.199633243471174014E-14, 2.249639673992785317E-32, 6.299999999999999822 ) ) ;
#8 = EDGE_LOOP ( 'NONE', ( #223 ) ) ;
#9 = CARTESIAN_POINT ( 'NONE',  ( 2.199633243471174014E-14, 0.0000000000000000000, 6.299999999999999822 ) ) ;
#10 = AXIS2_PLACEMENT_3D ( 'NONE', #220, #222, #53 ) ;
#11 = PRODUCT_DEFINITION ( 'UNKNOWN', '', #158, #150 ) ;
#12 = CC_DESIGN_APPROVAL ( #243, ( #58 ) ) ;
#13 = ORIENTED_EDGE ( 'NONE', *, *, #133, .T. ) ;
#14 = CC_DESIGN_PERSON_AND_ORGANIZATION_ASSIGNMENT ( #65, #132, ( #158 ) ) ;
#15 = FACE_OUTER_BOUND ( 'NONE', #215, .T. ) ;
#16 = CARTESIAN_POINT ( 'NONE',  ( 2.380365616693699179E-14, 0.0000000000000000000, 6.817638090205026202 ) ) ;
#17 = ORIENTED_EDGE ( 'NONE', *, *, #175, .F. ) ;
#18 = APPROVAL ( #41, 'UNSPECIFIED' ) ;
#19 = VERTEX_POINT ( 'NONE', #4 ) ;
#20 = ADVANCED_BREP_SHAPE_REPRESENTATION ( '334962', ( #22, #111, #51 ), #148 ) ;
#21 = CC_DESIGN_PERSON_AND_ORGANIZATION_ASSIGNMENT ( #241, #52, ( #58 ) ) ;
#22 = MANIFOLD_SOLID_BREP ( 'Corps-Déplacer/Copier1[1]', #159 ) ;
#23 = ADVANCED_FACE ( 'NONE', ( #15 ), #98, .T. ) ;
#24 = DATE_TIME_ROLE ( 'classification_date' ) ;
#25 = FACE_OUTER_BOUND ( 'NONE', #121, .T. ) ;
#26 = SHAPE_DEFINITION_REPRESENTATION ( #177, #20 ) ;
#27 = DIRECTION ( 'NONE',  ( 3.491481338843133355E-15, -0.0000000000000000000, 1.000000000000000000 ) ) ;
#28 = APPROVAL_PERSON_ORGANIZATION ( #136, #18, #192 ) ;
#29 = DIRECTION ( 'NONE',  ( 1.000000000000000000, 0.0000000000000000000, -3.491481338843133355E-15 ) ) ;
#30 = AXIS2_PLACEMENT_3D ( 'NONE', #157, #197, #54 ) ;
#31 = DIRECTION ( 'NONE',  ( 0.0000000000000000000, 1.000000000000000000, 0.0000000000000000000 ) ) ;
#32 = AXIS2_PLACEMENT_3D ( 'NONE', #141, #143, #29 ) ;
#33 = VERTEX_POINT ( 'NONE', #165 ) ;
#34 = PLANE ( 'NONE',  #78 ) ;
#35 = APPLICATION_PROTOCOL_DEFINITION ( 'international standard', 'config_control_design', 1994, #183 ) ;
#36 = ADVANCED_FACE ( 'NONE', ( #171, #191 ), #217, .T. ) ;
#37 =( NAMED_UNIT ( * ) SI_UNIT ( $, .STERADIAN. ) SOLID_ANGLE_UNIT ( ) );
#38 = AXIS2_PLACEMENT_3D ( 'NONE', #76, #114, #31 ) ;
#39 = DIRECTION ( 'NONE',  ( -3.491481338843133355E-15, 1.224646799147353207E-16, -1.000000000000000000 ) ) ;
#40 = VERTEX_POINT ( 'NONE', #55 ) ;
#41 = APPROVAL_STATUS ( 'not_yet_approved' ) ;
#42 = CALENDAR_DATE ( 2021, 15, 11 ) ;
#43 = CC_DESIGN_DATE_AND_TIME_ASSIGNMENT ( #120, #213, ( #11 ) ) ;
#44 = DIRECTION ( 'NONE',  ( 0.0000000000000000000, 1.000000000000000000, 0.0000000000000000000 ) ) ;
#45 = COORDINATED_UNIVERSAL_TIME_OFFSET ( 1, 0, .AHEAD. ) ;
#46 = AXIS2_PLACEMENT_3D ( 'NONE', #229, #62, #167 ) ;
#47 = EDGE_LOOP ( 'NONE', ( #160 ) ) ;
#48 = CALENDAR_DATE ( 2021, 15, 11 ) ;
#49 = DATE_AND_TIME ( #42, #94 ) ;
#50 = CARTESIAN_POINT ( 'NONE',  ( 0.0000000000000000000, 0.0000000000000000000, 0.0000000000000000000 ) ) ;
#51 = AXIS2_PLACEMENT_3D ( 'NONE', #182, #146, #102 ) ;
#52 = PERSON_AND_ORGANIZATION_ROLE ( 'classification_officer' ) ;
#53 = DIRECTION ( 'NONE',  ( 1.000000000000000000, 0.0000000000000000000, -3.469446951953613006E-15 ) ) ;
#54 = DIRECTION ( 'NONE',  ( 0.0000000000000000000, 1.000000000000000000, 0.0000000000000000000 ) ) ;
#55 = CARTESIAN_POINT ( 'NONE',  ( 1.902857329669507616E-13, 2.999999999999995559, 54.50000000000000000 ) ) ;
#56 = DIRECTION ( 'NONE',  ( 1.000000000000000000, 0.0000000000000000000, -3.469446951953616161E-15 ) ) ;
#57 = CLOSED_SHELL ( 'NONE', ( #149, #75, #23 ) ) ;
#58 = SECURITY_CLASSIFICATION ( '', '', #87 ) ;
#59 = APPLICATION_PROTOCOL_DEFINITION ( 'international standard', 'config_control_design', 1994, #230 ) ;
#60 =( LENGTH_UNIT ( ) NAMED_UNIT ( * ) SI_UNIT ( .MILLI., .METRE. ) );
#61 = CC_DESIGN_PERSON_AND_ORGANIZATION_ASSIGNMENT ( #122, #86, ( #11 ) ) ;
#62 = DIRECTION ( 'NONE',  ( 3.491481338843133355E-15, -0.0000000000000000000, 1.000000000000000000 ) ) ;
#63 = CC_DESIGN_APPROVAL ( #130, ( #11 ) ) ;
#64 = FACE_OUTER_BOUND ( 'NONE', #193, .T. ) ;
#65 = PERSON_AND_ORGANIZATION ( #70, #110 ) ;
#66 = PLANE ( 'NONE',  #178 ) ;
#67 = EDGE_CURVE ( 'NONE', #118, #118, #97, .T. ) ;
#68 = APPROVAL_PERSON_ORGANIZATION ( #184, #130, #221 ) ;
#69 = DATE_AND_TIME ( #92, #84 ) ;
#70 = PERSON ( 'UNSPECIFIED', 'UNSPECIFIED', 'UNSPECIFIED', ('UNSPECIFIED'), ('UNSPECIFIED'), ('UNSPECIFIED') ) ;
#71 = CARTESIAN_POINT ( 'NONE',  ( 6.852200703763403523E-14, 0.0000000000000000000, 19.62548282166620695 ) ) ;
#72 = CALENDAR_DATE ( 2021, 15, 11 ) ;
#73 = EDGE_CURVE ( 'NONE', #40, #40, #227, .T. ) ;
#74 = DIRECTION ( 'NONE',  ( 1.000000000000000000, 0.0000000000000000000, -3.469446951953616161E-15 ) ) ;
#75 = ADVANCED_FACE ( 'NONE', ( #25, #108 ), #109, .T. ) ;
#76 = CARTESIAN_POINT ( 'NONE',  ( 1.902857329669507616E-13, -6.674325055353075041E-15, 54.50000000000000000 ) ) ;
#77 = EDGE_LOOP ( 'NONE', ( #13 ) ) ;
#78 = AXIS2_PLACEMENT_3D ( 'NONE', #176, #91, #156 ) ;
#79 = ORIENTED_EDGE ( 'NONE', *, *, #175, .T. ) ;
#80 = FACE_OUTER_BOUND ( 'NONE', #137, .T. ) ;
#81 = CARTESIAN_POINT ( 'NONE',  ( 1.568148347421882693, 0.0000000000000000000, 6.817638090205021761 ) ) ;
#82 = CC_DESIGN_SECURITY_CLASSIFICATION ( #58, ( #158 ) ) ;
#83 = CARTESIAN_POINT ( 'NONE',  ( 1.500000000000000444, 0.0000000000000000000, -5.972010087753113288E-15 ) ) ;
#84 = LOCAL_TIME ( 9, 6, 4.000000000000000000, #128 ) ;
#85 = PLANE ( 'NONE',  #224 ) ;
#86 = PERSON_AND_ORGANIZATION_ROLE ( 'creator' ) ;
#87 = SECURITY_CLASSIFICATION_LEVEL ( 'unclassified' ) ;
#88 = ORIENTED_EDGE ( 'NONE', *, *, #107, .F. ) ;
#89 = AXIS2_PLACEMENT_3D ( 'NONE', #210, #105, #44 ) ;
#90 = EDGE_LOOP ( 'NONE', ( #88 ) ) ;
#91 = DIRECTION ( 'NONE',  ( 3.491481338843133355E-15, -1.224646799147353207E-16, 1.000000000000000000 ) ) ;
#92 = CALENDAR_DATE ( 2021, 15, 11 ) ;
#93 = DIRECTION ( 'NONE',  ( 3.491481338843133355E-15, -0.0000000000000000000, 1.000000000000000000 ) ) ;
#94 = LOCAL_TIME ( 9, 6, 4.000000000000000000, #45 ) ;
#95 = ADVANCED_FACE ( 'NONE', ( #205 ), #85, .F. ) ;
#96 = FACE_OUTER_BOUND ( 'NONE', #112, .T. ) ;
#97 = CIRCLE ( 'NONE', #30, 2.499999999999998668 ) ;
#98 = PLANE ( 'NONE',  #186 ) ;
#99 = DIRECTION ( 'NONE',  ( 3.491481338843133355E-15, -0.0000000000000000000, 1.000000000000000000 ) ) ;
#100 = ADVANCED_FACE ( 'NONE', ( #168 ), #66, .F. ) ;
#101 = CIRCLE ( 'NONE', #131, 1.568148347421858713 ) ;
#102 = DIRECTION ( 'NONE',  ( 1.000000000000000000, 0.0000000000000000000, 0.0000000000000000000 ) ) ;
#103 = VERTEX_POINT ( 'NONE', #83 ) ;
#104 = CONICAL_SURFACE ( 'NONE', #1, 5.000000000000000000, 0.2617993877991427465 ) ;
#105 = DIRECTION ( 'NONE',  ( -3.491481338843133355E-15, 1.224646799147353207E-16, -1.000000000000000000 ) ) ;
#106 = ADVANCED_FACE ( 'NONE', ( #64, #96 ), #113, .F. ) ;
#107 = EDGE_CURVE ( 'NONE', #33, #33, #117, .T. ) ;
#108 = FACE_OUTER_BOUND ( 'NONE', #3, .T. ) ;
#109 = CYLINDRICAL_SURFACE ( 'NONE', #46, 1.499999999999999778 ) ;
#110 = ORGANIZATION ( 'UNSPECIFIED', 'UNSPECIFIED', '' ) ;
#111 = MANIFOLD_SOLID_BREP ( 'Corps-Déplacer/Copier1[2]', #57 ) ;
#112 = EDGE_LOOP ( 'NONE', ( #239 ) ) ;
#113 = TOROIDAL_SURFACE ( 'NONE', #32, 3.499999999999998668, 1.999999999999999556 ) ;
#114 = DIRECTION ( 'NONE',  ( -3.491481338843133355E-15, 1.224646799147353207E-16, -1.000000000000000000 ) ) ;
#115 = CARTESIAN_POINT ( 'NONE',  ( 1.500000000000021094, 0.0000000000000000000, 6.299999999999994493 ) ) ;
#116 = ADVANCED_FACE ( 'NONE', ( #144, #80 ), #162, .T. ) ;
#117 = CIRCLE ( 'NONE', #10, 3.000000000000000888 ) ;
#118 = VERTEX_POINT ( 'NONE', #207 ) ;
#119 = APPROVAL_DATE_TIME ( #49, #243 ) ;
#120 = DATE_AND_TIME ( #72, #181 ) ;
#121 = EDGE_LOOP ( 'NONE', ( #79 ) ) ;
#122 = PERSON_AND_ORGANIZATION ( #70, #110 ) ;
#123 = EDGE_CURVE ( 'NONE', #19, #19, #201, .T. ) ;
#124 = EDGE_LOOP ( 'NONE', ( #154 ) ) ;
#125 = CARTESIAN_POINT ( 'NONE',  ( 2.199633243471174014E-14, 0.0000000000000000000, 6.299999999999999822 ) ) ;
#126 = ORIENTED_EDGE ( 'NONE', *, *, #169, .F. ) ;
#127 = EDGE_LOOP ( 'NONE', ( #242 ) ) ;
#128 = COORDINATED_UNIVERSAL_TIME_OFFSET ( 1, 0, .AHEAD. ) ;
#129 = DIRECTION ( 'NONE',  ( 3.491481338843133355E-15, -0.0000000000000000000, 1.000000000000000000 ) ) ;
#130 = APPROVAL ( #164, 'UNSPECIFIED' ) ;
#131 = AXIS2_PLACEMENT_3D ( 'NONE', #16, #99, #140 ) ;
#132 = PERSON_AND_ORGANIZATION_ROLE ( 'creator' ) ;
#133 = EDGE_CURVE ( 'NONE', #228, #228, #101, .T. ) ;
#134 = FACE_OUTER_BOUND ( 'NONE', #90, .T. ) ;
#135 = COORDINATED_UNIVERSAL_TIME_OFFSET ( 1, 0, .AHEAD. ) ;
#136 = PERSON_AND_ORGANIZATION ( #70, #110 ) ;
#137 = EDGE_LOOP ( 'NONE', ( #179 ) ) ;
#138 = CARTESIAN_POINT ( 'NONE',  ( -2.565498867538175514E-30, 0.0000000000000000000, -7.347880794884119736E-16 ) ) ;
#139 = EDGE_LOOP ( 'NONE', ( #199 ) ) ;
#140 = DIRECTION ( 'NONE',  ( 1.000000000000000000, 0.0000000000000000000, -3.318672264959132994E-15 ) ) ;
#141 = CARTESIAN_POINT ( 'NONE',  ( 2.199633243471174014E-14, 0.0000000000000000000, 6.299999999999999822 ) ) ;
#142 = ORIENTED_EDGE ( 'NONE', *, *, #123, .T. ) ;
#143 = DIRECTION ( 'NONE',  ( 3.491481338843133355E-15, -0.0000000000000000000, 1.000000000000000000 ) ) ;
#144 = FACE_BOUND ( 'NONE', #180, .T. ) ;
#145 = AXIS2_PLACEMENT_3D ( 'NONE', #50, #238, #152 ) ;
#146 = DIRECTION ( 'NONE',  ( 0.0000000000000000000, 0.0000000000000000000, 1.000000000000000000 ) ) ;
#147 = CIRCLE ( 'NONE', #206, 1.499999999999999112 ) ;
#148 =( GEOMETRIC_REPRESENTATION_CONTEXT ( 3 ) GLOBAL_UNCERTAINTY_ASSIGNED_CONTEXT ( ( #195 ) ) GLOBAL_UNIT_ASSIGNED_CONTEXT ( ( #60, #6, #37 ) ) REPRESENTATION_CONTEXT ( 'NONE', 'WORKASPACE' ) );
#149 = ADVANCED_FACE ( 'NONE', ( #202 ), #34, .T. ) ;
#150 = DESIGN_CONTEXT ( 'detailed design', #230, 'design' ) ;
#151 = APPROVAL_PERSON_ORGANIZATION ( #153, #243, #240 ) ;
#152 = DIRECTION ( 'NONE',  ( 4.275831445896958607E-31, 1.000000000000000000, 1.224646799147353207E-16 ) ) ;
#153 = PERSON_AND_ORGANIZATION ( #70, #110 ) ;
#154 = ORIENTED_EDGE ( 'NONE', *, *, #67, .F. ) ;
#155 = DIRECTION ( 'NONE',  ( 4.275831445896958607E-31, 1.000000000000000000, 1.224646799147353207E-16 ) ) ;
#156 = DIRECTION ( 'NONE',  ( -4.275831445896958607E-31, -1.000000000000000000, -1.224646799147353207E-16 ) ) ;
#157 = CARTESIAN_POINT ( 'NONE',  ( 1.920314736363723724E-13, -6.735557395310444193E-15, 55.00000000000000711 ) ) ;
#158 = PRODUCT_DEFINITION_FORMATION_WITH_SPECIFIED_SOURCE ( 'ANY', '', #212, .NOT_KNOWN. ) ;
#159 = CLOSED_SHELL ( 'NONE', ( #36, #116, #95, #106, #200, #100 ) ) ;
#160 = ORIENTED_EDGE ( 'NONE', *, *, #123, .F. ) ;
#161 = CARTESIAN_POINT ( 'NONE',  ( -6.413747168845438786E-31, 2.249639673992786412E-32, -1.836970198721029934E-16 ) ) ;
#162 = CONICAL_SURFACE ( 'NONE', #38, 3.000000000000002220, 0.7853981633974445042 ) ;
#163 = MECHANICAL_CONTEXT ( 'NONE', #183, 'mechanical' ) ;
#164 = APPROVAL_STATUS ( 'not_yet_approved' ) ;
#165 = CARTESIAN_POINT ( 'NONE',  ( 3.000000000000043521, 0.0000000000000000000, 12.16138120652824561 ) ) ;
#166 = DIRECTION ( 'NONE',  ( 4.275831445896958607E-31, 1.000000000000000000, 1.224646799147353207E-16 ) ) ;
#167 = DIRECTION ( 'NONE',  ( 1.000000000000000000, 0.0000000000000000000, -3.491481338843133355E-15 ) ) ;
#168 = FACE_OUTER_BOUND ( 'NONE', #47, .T. ) ;
#169 = EDGE_CURVE ( 'NONE', #225, #225, #147, .T. ) ;
#170 = FACE_BOUND ( 'NONE', #77, .T. ) ;
#171 = FACE_OUTER_BOUND ( 'NONE', #139, .T. ) ;
#172 = ORIENTED_EDGE ( 'NONE', *, *, #67, .T. ) ;
#173 = DATE_AND_TIME ( #189, #188 ) ;
#174 = AXIS2_PLACEMENT_3D ( 'NONE', #9, #129, #56 ) ;
#175 = EDGE_CURVE ( 'NONE', #103, #103, #211, .T. ) ;
#176 = CARTESIAN_POINT ( 'NONE',  ( 2.199633243471174014E-14, 2.249639673992785317E-32, 6.299999999999999822 ) ) ;
#177 = PRODUCT_DEFINITION_SHAPE ( 'NONE', 'NONE',  #11 ) ;
#178 = AXIS2_PLACEMENT_3D ( 'NONE', #7, #209, #232 ) ;
#179 = ORIENTED_EDGE ( 'NONE', *, *, #73, .F. ) ;
#180 = EDGE_LOOP ( 'NONE', ( #172 ) ) ;
#181 = LOCAL_TIME ( 9, 6, 4.000000000000000000, #135 ) ;
#182 = CARTESIAN_POINT ( 'NONE',  ( 0.0000000000000000000, 0.0000000000000000000, 0.0000000000000000000 ) ) ;
#183 = APPLICATION_CONTEXT ( 'configuration controlled 3d designs of mechanical parts and assemblies' ) ;
#184 = PERSON_AND_ORGANIZATION ( #70, #110 ) ;
#185 = CC_DESIGN_PERSON_AND_ORGANIZATION_ASSIGNMENT ( #204, #226, ( #212 ) ) ;
#186 = AXIS2_PLACEMENT_3D ( 'NONE', #161, #2, #155 ) ;
#187 = PERSON_AND_ORGANIZATION_ROLE ( 'design_supplier' ) ;
#188 = LOCAL_TIME ( 9, 6, 4.000000000000000000, #198 ) ;
#189 = CALENDAR_DATE ( 2021, 15, 11 ) ;
#190 = APPROVAL_DATE_TIME ( #69, #130 ) ;
#191 = FACE_OUTER_BOUND ( 'NONE', #8, .T. ) ;
#192 = APPROVAL_ROLE ( '' ) ;
#193 = EDGE_LOOP ( 'NONE', ( #142 ) ) ;
#194 = DATE_AND_TIME ( #48, #196 ) ;
#195 = UNCERTAINTY_MEASURE_WITH_UNIT (LENGTH_MEASURE( 1.000000000000000082E-05 ), #60, 'distance_accuracy_value', 'NONE');
#196 = LOCAL_TIME ( 9, 6, 4.000000000000000000, #216 ) ;
#197 = DIRECTION ( 'NONE',  ( -3.491481338843133355E-15, 1.224646799147353207E-16, -1.000000000000000000 ) ) ;
#198 = COORDINATED_UNIVERSAL_TIME_OFFSET ( 1, 0, .AHEAD. ) ;
#199 = ORIENTED_EDGE ( 'NONE', *, *, #73, .T. ) ;
#200 = ADVANCED_FACE ( 'NONE', ( #134, #170 ), #104, .T. ) ;
#201 = CIRCLE ( 'NONE', #174, 1.499999999999999112 ) ;
#202 = FACE_OUTER_BOUND ( 'NONE', #127, .T. ) ;
#203 = PRODUCT_RELATED_PRODUCT_CATEGORY ( 'detail', '', ( #212 ) ) ;
#204 = PERSON_AND_ORGANIZATION ( #70, #110 ) ;
#205 = FACE_OUTER_BOUND ( 'NONE', #124, .T. ) ;
#206 = AXIS2_PLACEMENT_3D ( 'NONE', #125, #93, #74 ) ;
#207 = CARTESIAN_POINT ( 'NONE',  ( 1.920314736363723724E-13, 2.499999999999992006, 55.00000000000000711 ) ) ;
#208 = PERSON_AND_ORGANIZATION ( #70, #110 ) ;
#209 = DIRECTION ( 'NONE',  ( 3.491481338843133355E-15, -1.224646799147353207E-16, 1.000000000000000000 ) ) ;
#210 = CARTESIAN_POINT ( 'NONE',  ( 1.902857329669507616E-13, -6.674325055353075041E-15, 54.50000000000000000 ) ) ;
#211 = CIRCLE ( 'NONE', #233, 1.500000000000000444 ) ;
#212 = PRODUCT ( '334962', '334962', '', ( #163 ) ) ;
#213 = DATE_TIME_ROLE ( 'creation_date' ) ;
#214 = CC_DESIGN_PERSON_AND_ORGANIZATION_ASSIGNMENT ( #208, #187, ( #158 ) ) ;
#215 = EDGE_LOOP ( 'NONE', ( #17 ) ) ;
#216 = COORDINATED_UNIVERSAL_TIME_OFFSET ( 1, 0, .AHEAD. ) ;
#217 = CYLINDRICAL_SURFACE ( 'NONE', #145, 3.000000000000000888 ) ;
#218 = DIRECTION ( 'NONE',  ( 1.000000000000000000, 0.0000000000000000000, -3.491481338843133355E-15 ) ) ;
#219 = DIRECTION ( 'NONE',  ( 3.491481338843133355E-15, -0.0000000000000000000, 1.000000000000000000 ) ) ;
#220 = CARTESIAN_POINT ( 'NONE',  ( 4.246123553715099226E-14, 0.0000000000000000000, 12.16138120652825449 ) ) ;
#221 = APPROVAL_ROLE ( '' ) ;
#222 = DIRECTION ( 'NONE',  ( 3.491481338843133355E-15, -0.0000000000000000000, 1.000000000000000000 ) ) ;
#223 = ORIENTED_EDGE ( 'NONE', *, *, #107, .T. ) ;
#224 = AXIS2_PLACEMENT_3D ( 'NONE', #235, #39, #166 ) ;
#225 = VERTEX_POINT ( 'NONE', #115 ) ;
#226 = PERSON_AND_ORGANIZATION_ROLE ( 'design_owner' ) ;
#227 = CIRCLE ( 'NONE', #89, 3.000000000000002220 ) ;
#228 = VERTEX_POINT ( 'NONE', #81 ) ;
#229 = CARTESIAN_POINT ( 'NONE',  ( 0.0000000000000000000, 0.0000000000000000000, 0.0000000000000000000 ) ) ;
#230 = APPLICATION_CONTEXT ( 'configuration controlled 3d designs of mechanical parts and assemblies' ) ;
#231 = DIRECTION ( 'NONE',  ( 1.000000000000000000, 0.0000000000000000000, -3.469446951953614189E-15 ) ) ;
#232 = DIRECTION ( 'NONE',  ( -4.275831445896958607E-31, -1.000000000000000000, -1.224646799147353207E-16 ) ) ;
#233 = AXIS2_PLACEMENT_3D ( 'NONE', #138, #219, #218 ) ;
#234 = APPROVAL_DATE_TIME ( #194, #18 ) ;
#235 = CARTESIAN_POINT ( 'NONE',  ( 1.920314736363723724E-13, -8.310224236210339646E-31, 55.00000000000000711 ) ) ;
#236 = APPROVAL_STATUS ( 'not_yet_approved' ) ;
#237 = CC_DESIGN_APPROVAL ( #18, ( #158 ) ) ;
#238 = DIRECTION ( 'NONE',  ( -3.491481338843133355E-15, 1.224646799147353207E-16, -1.000000000000000000 ) ) ;
#239 = ORIENTED_EDGE ( 'NONE', *, *, #133, .F. ) ;
#240 = APPROVAL_ROLE ( '' ) ;
#241 = PERSON_AND_ORGANIZATION ( #70, #110 ) ;
#242 = ORIENTED_EDGE ( 'NONE', *, *, #169, .T. ) ;
#243 = APPROVAL ( #236, 'UNSPECIFIED' ) ;
ENDSEC;
END-ISO-10303-21;
