ISO-10303-21;
HEADER;
FILE_DESCRIPTION (( 'STEP AP203' ),
    '1' );
FILE_NAME ('334961.step',
    '2021-11-15T08:06:04',
    ( '' ),
    ( '' ),
    'SwSTEP 2.0',
    'SolidWorks 2019',
    '' );
FILE_SCHEMA (( 'CONFIG_CONTROL_DESIGN' ));
ENDSEC;

DATA;
#1 = FACE_OUTER_BOUND ( 'NONE', #101, .T. ) ;
#2 = APPLICATION_CONTEXT ( 'configuration controlled 3d designs of mechanical parts and assemblies' ) ;
#3 = AXIS2_PLACEMENT_3D ( 'NONE', #179, #235, #107 ) ;
#4 = ADVANCED_FACE ( 'NONE', ( #121 ), #71, .F. ) ;
#5 = ORIENTED_EDGE ( 'NONE', *, *, #123, .F. ) ;
#6 =( GEOMETRIC_REPRESENTATION_CONTEXT ( 3 ) GLOBAL_UNCERTAINTY_ASSIGNED_CONTEXT ( ( #127 ) ) GLOBAL_UNIT_ASSIGNED_CONTEXT ( ( #56, #77, #149 ) ) REPRESENTATION_CONTEXT ( 'NONE', 'WORKASPACE' ) );
#7 = DIRECTION ( 'NONE',  ( 1.000000000000000000, 0.0000000000000000000, -3.469446951953614978E-15 ) ) ;
#8 = AXIS2_PLACEMENT_3D ( 'NONE', #130, #13, #17 ) ;
#9 = DIRECTION ( 'NONE',  ( 4.275831445896958607E-31, 1.000000000000000000, 1.224646799147353207E-16 ) ) ;
#10 = CARTESIAN_POINT ( 'NONE',  ( 2.919696488562668781E-14, 0.0000000000000000000, 8.362343100851516553 ) ) ;
#11 = COORDINATED_UNIVERSAL_TIME_OFFSET ( 1, 0, .AHEAD. ) ;
#12 = VERTEX_POINT ( 'NONE', #19 ) ;
#13 = DIRECTION ( 'NONE',  ( 3.491481338843133355E-15, -1.224646799147353207E-16, 1.000000000000000000 ) ) ;
#14 = ADVANCED_FACE ( 'NONE', ( #238 ), #147, .T. ) ;
#15 = PERSON_AND_ORGANIZATION ( #23, #84 ) ;
#16 = FACE_OUTER_BOUND ( 'NONE', #217, .T. ) ;
#17 = DIRECTION ( 'NONE',  ( -4.275831445896958607E-31, -1.000000000000000000, -1.224646799147353207E-16 ) ) ;
#18 = CALENDAR_DATE ( 2021, 15, 11 ) ;
#19 = CARTESIAN_POINT ( 'NONE',  ( 1.250000000000000222, 0.0000000000000000000, -4.854210393212858864E-15 ) ) ;
#20 = DIRECTION ( 'NONE',  ( -3.491481338843133355E-15, 1.224646799147353207E-16, -1.000000000000000000 ) ) ;
#21 = CARTESIAN_POINT ( 'NONE',  ( 1.850485109586860994E-14, 0.0000000000000000000, 5.300000000000000711 ) ) ;
#22 = APPROVAL_PERSON_ORGANIZATION ( #192, #131, #226 ) ;
#23 = PERSON ( 'UNSPECIFIED', 'UNSPECIFIED', 'UNSPECIFIED', ('UNSPECIFIED'), ('UNSPECIFIED'), ('UNSPECIFIED') ) ;
#24 = CIRCLE ( 'NONE', #155, 1.999999999999999556 ) ;
#25 = EDGE_LOOP ( 'NONE', ( #45 ) ) ;
#26 = CYLINDRICAL_SURFACE ( 'NONE', #224, 1.250000000000000000 ) ;
#27 = CC_DESIGN_PERSON_AND_ORGANIZATION_ASSIGNMENT ( #15, #59, ( #157 ) ) ;
#28 = PLANE ( 'NONE',  #41 ) ;
#29 = DATE_AND_TIME ( #100, #202 ) ;
#30 = AXIS2_PLACEMENT_3D ( 'NONE', #49, #124, #203 ) ;
#31 = CARTESIAN_POINT ( 'NONE',  ( 2.000000000000028866, 0.0000000000000000000, 8.362343100851509448 ) ) ;
#32 = CARTESIAN_POINT ( 'NONE',  ( 0.0000000000000000000, 0.0000000000000000000, 0.0000000000000000000 ) ) ;
#33 = EDGE_LOOP ( 'NONE', ( #5 ) ) ;
#34 = CARTESIAN_POINT ( 'NONE',  ( 1.326762908760390675E-13, 1.599999999999997202, 38.00000000000000711 ) ) ;
#35 = DATE_TIME_ROLE ( 'creation_date' ) ;
#36 = DIRECTION ( 'NONE',  ( 1.000000000000000000, 0.0000000000000000000, -3.469446951953614978E-15 ) ) ;
#37 = CC_DESIGN_PERSON_AND_ORGANIZATION_ASSIGNMENT ( #228, #187, ( #136 ) ) ;
#38 = CARTESIAN_POINT ( 'NONE',  ( 1.312796983405018394E-13, -4.604671964794048513E-15, 37.60000000000000853 ) ) ;
#39 = PRODUCT_DEFINITION_FORMATION_WITH_SPECIFIED_SOURCE ( 'ANY', '', #136, .NOT_KNOWN. ) ;
#40 = AXIS2_PLACEMENT_3D ( 'NONE', #225, #159, #188 ) ;
#41 = AXIS2_PLACEMENT_3D ( 'NONE', #74, #164, #220 ) ;
#42 = ADVANCED_FACE ( 'NONE', ( #141 ), #28, .T. ) ;
#43 = EDGE_LOOP ( 'NONE', ( #64 ) ) ;
#44 = SECURITY_CLASSIFICATION ( '', '', #53 ) ;
#45 = ORIENTED_EDGE ( 'NONE', *, *, #185, .F. ) ;
#46 = CALENDAR_DATE ( 2021, 15, 11 ) ;
#47 = ADVANCED_FACE ( 'NONE', ( #212, #208 ), #182, .T. ) ;
#48 = FACE_BOUND ( 'NONE', #99, .T. ) ;
#49 = CARTESIAN_POINT ( 'NONE',  ( 1.850485109586860678E-14, 1.499759782661856513E-32, 5.299999999999999822 ) ) ;
#50 = COORDINATED_UNIVERSAL_TIME_OFFSET ( 1, 0, .AHEAD. ) ;
#51 = DIRECTION ( 'NONE',  ( 1.000000000000000000, 0.0000000000000000000, -3.469446951953614978E-15 ) ) ;
#52 = CIRCLE ( 'NONE', #205, 1.250000000000000222 ) ;
#53 = SECURITY_CLASSIFICATION_LEVEL ( 'unclassified' ) ;
#54 = EDGE_LOOP ( 'NONE', ( #145 ) ) ;
#55 = PERSON_AND_ORGANIZATION ( #23, #84 ) ;
#56 =( LENGTH_UNIT ( ) NAMED_UNIT ( * ) SI_UNIT ( .MILLI., .METRE. ) );
#57 = VERTEX_POINT ( 'NONE', #34 ) ;
#58 = CARTESIAN_POINT ( 'NONE',  ( 1.326762908760390675E-13, -4.653657836759942730E-15, 38.00000000000000711 ) ) ;
#59 = PERSON_AND_ORGANIZATION_ROLE ( 'creator' ) ;
#60 = PERSON_AND_ORGANIZATION ( #23, #84 ) ;
#61 = EDGE_CURVE ( 'NONE', #57, #57, #70, .T. ) ;
#62 = AXIS2_PLACEMENT_3D ( 'NONE', #190, #78, #129 ) ;
#63 = MANIFOLD_SOLID_BREP ( 'Corps-Déplacer/Copier1[2]', #176 ) ;
#64 = ORIENTED_EDGE ( 'NONE', *, *, #137, .T. ) ;
#65 = LOCAL_TIME ( 9, 6, 4.000000000000000000, #204 ) ;
#66 = AXIS2_PLACEMENT_3D ( 'NONE', #10, #81, #36 ) ;
#67 = APPROVAL_ROLE ( '' ) ;
#68 = ORIENTED_EDGE ( 'NONE', *, *, #236, .T. ) ;
#69 = EDGE_LOOP ( 'NONE', ( #237 ) ) ;
#70 = CIRCLE ( 'NONE', #135, 1.600000000000001865 ) ;
#71 = PLANE ( 'NONE',  #40 ) ;
#72 = ORIENTED_EDGE ( 'NONE', *, *, #61, .T. ) ;
#73 = DIRECTION ( 'NONE',  ( 1.000000000000000000, 0.0000000000000000000, -3.491481338843133355E-15 ) ) ;
#74 = CARTESIAN_POINT ( 'NONE',  ( -4.275831445896957731E-31, 1.499759782661857608E-32, -1.224646799147353207E-16 ) ) ;
#75 = ADVANCED_FACE ( 'NONE', ( #112, #115 ), #83, .T. ) ;
#76 = CARTESIAN_POINT ( 'NONE',  ( 1.318148347421880695, 0.0000000000000000000, 5.817638090205024426 ) ) ;
#77 =( NAMED_UNIT ( * ) PLANE_ANGLE_UNIT ( ) SI_UNIT ( $, .RADIAN. ) );
#78 = DIRECTION ( 'NONE',  ( 3.491481338843133355E-15, -0.0000000000000000000, 1.000000000000000000 ) ) ;
#79 = VERTEX_POINT ( 'NONE', #161 ) ;
#80 = APPROVAL ( #184, 'UNSPECIFIED' ) ;
#81 = DIRECTION ( 'NONE',  ( 3.491481338843133355E-15, -0.0000000000000000000, 1.000000000000000000 ) ) ;
#82 = DIRECTION ( 'NONE',  ( 3.491481338843133355E-15, -0.0000000000000000000, 1.000000000000000000 ) ) ;
#83 = CONICAL_SURFACE ( 'NONE', #215, 1.999999999999999556, 0.7853981633974485010 ) ;
#84 = ORGANIZATION ( 'UNSPECIFIED', 'UNSPECIFIED', '' ) ;
#85 = CIRCLE ( 'NONE', #117, 1.249999999999999778 ) ;
#86 = APPROVAL_DATE_TIME ( #216, #151 ) ;
#87 = FACE_OUTER_BOUND ( 'NONE', #25, .T. ) ;
#88 = DIRECTION ( 'NONE',  ( -3.491481338843133355E-15, 1.224646799147353207E-16, -1.000000000000000000 ) ) ;
#89 = DATE_AND_TIME ( #18, #223 ) ;
#90 = VERTEX_POINT ( 'NONE', #133 ) ;
#91 = EDGE_LOOP ( 'NONE', ( #122 ) ) ;
#92 = AXIS2_PLACEMENT_3D ( 'NONE', #21, #163, #51 ) ;
#93 = CALENDAR_DATE ( 2021, 15, 11 ) ;
#94 = DIRECTION ( 'NONE',  ( -3.491481338843133355E-15, 1.224646799147353207E-16, -1.000000000000000000 ) ) ;
#95 = APPLICATION_PROTOCOL_DEFINITION ( 'international standard', 'config_control_design', 1994, #2 ) ;
#96 = VERTEX_POINT ( 'NONE', #111 ) ;
#97 = CC_DESIGN_APPROVAL ( #151, ( #44 ) ) ;
#98 = CC_DESIGN_DATE_AND_TIME_ASSIGNMENT ( #29, #105, ( #44 ) ) ;
#99 = EDGE_LOOP ( 'NONE', ( #68 ) ) ;
#100 = CALENDAR_DATE ( 2021, 15, 11 ) ;
#101 = EDGE_LOOP ( 'NONE', ( #113 ) ) ;
#102 = ADVANCED_FACE ( 'NONE', ( #87 ), #158, .F. ) ;
#103 = EDGE_LOOP ( 'NONE', ( #233 ) ) ;
#104 = DIRECTION ( 'NONE',  ( 0.0000000000000000000, 1.000000000000000000, 0.0000000000000000000 ) ) ;
#105 = DATE_TIME_ROLE ( 'classification_date' ) ;
#106 = AXIS2_PLACEMENT_3D ( 'NONE', #32, #20, #9 ) ;
#107 = DIRECTION ( 'NONE',  ( 1.000000000000000000, 0.0000000000000000000, -3.469446951953614978E-15 ) ) ;
#108 = PRODUCT_RELATED_PRODUCT_CATEGORY ( 'detail', '', ( #136 ) ) ;
#109 = EDGE_LOOP ( 'NONE', ( #138 ) ) ;
#110 = DIRECTION ( 'NONE',  ( 1.000000000000000000, 0.0000000000000000000, 0.0000000000000000000 ) ) ;
#111 = CARTESIAN_POINT ( 'NONE',  ( 1.312796983405018394E-13, 1.999999999999994893, 37.60000000000000853 ) ) ;
#112 = FACE_BOUND ( 'NONE', #201, .T. ) ;
#113 = ORIENTED_EDGE ( 'NONE', *, *, #118, .F. ) ;
#114 = MECHANICAL_CONTEXT ( 'NONE', #2, 'mechanical' ) ;
#115 = FACE_OUTER_BOUND ( 'NONE', #33, .T. ) ;
#116 = DIRECTION ( 'NONE',  ( -3.491481338843133355E-15, 1.224646799147353207E-16, -1.000000000000000000 ) ) ;
#117 = AXIS2_PLACEMENT_3D ( 'NONE', #222, #175, #7 ) ;
#118 = EDGE_CURVE ( 'NONE', #207, #207, #172, .T. ) ;
#119 = PRODUCT_DEFINITION_SHAPE ( 'NONE', 'NONE',  #157 ) ;
#120 = AXIS2_PLACEMENT_3D ( 'NONE', #211, #146, #126 ) ;
#121 = FACE_OUTER_BOUND ( 'NONE', #156, .T. ) ;
#122 = ORIENTED_EDGE ( 'NONE', *, *, #123, .T. ) ;
#123 = EDGE_CURVE ( 'NONE', #96, #96, #24, .T. ) ;
#124 = DIRECTION ( 'NONE',  ( 3.491481338843133355E-15, -1.224646799147353207E-16, 1.000000000000000000 ) ) ;
#125 = ADVANCED_BREP_SHAPE_REPRESENTATION ( '334961', ( #139, #63, #170 ), #6 ) ;
#126 = DIRECTION ( 'NONE',  ( 1.000000000000000000, 0.0000000000000000000, -3.290076339604942282E-15 ) ) ;
#127 = UNCERTAINTY_MEASURE_WITH_UNIT (LENGTH_MEASURE( 1.000000000000000082E-05 ), #56, 'distance_accuracy_value', 'NONE');
#128 = CARTESIAN_POINT ( 'NONE',  ( 0.0000000000000000000, 0.0000000000000000000, 0.0000000000000000000 ) ) ;
#129 = DIRECTION ( 'NONE',  ( 1.000000000000000000, 0.0000000000000000000, -3.491481338843132961E-15 ) ) ;
#130 = CARTESIAN_POINT ( 'NONE',  ( 1.850485109586860678E-14, 1.499759782661856513E-32, 5.299999999999999822 ) ) ;
#131 = APPROVAL ( #165, 'UNSPECIFIED' ) ;
#132 = COORDINATED_UNIVERSAL_TIME_OFFSET ( 1, 0, .AHEAD. ) ;
#133 = CARTESIAN_POINT ( 'NONE',  ( 1.250000000000018208, 0.0000000000000000000, 5.299999999999996270 ) ) ;
#134 = CARTESIAN_POINT ( 'NONE',  ( -1.710332578358783092E-30, 0.0000000000000000000, -4.898587196589412829E-16 ) ) ;
#135 = AXIS2_PLACEMENT_3D ( 'NONE', #58, #88, #180 ) ;
#136 = PRODUCT ( '334961', '334961', '', ( #114 ) ) ;
#137 = EDGE_CURVE ( 'NONE', #12, #12, #52, .T. ) ;
#138 = ORIENTED_EDGE ( 'NONE', *, *, #236, .F. ) ;
#139 = MANIFOLD_SOLID_BREP ( 'Corps-Déplacer/Copier1[1]', #150 ) ;
#140 = ADVANCED_FACE ( 'NONE', ( #1, #48 ), #194, .T. ) ;
#141 = FACE_OUTER_BOUND ( 'NONE', #69, .T. ) ;
#142 = EDGE_LOOP ( 'NONE', ( #154 ) ) ;
#143 = CC_DESIGN_APPROVAL ( #80, ( #157 ) ) ;
#144 = DESIGN_CONTEXT ( 'detailed design', #214, 'design' ) ;
#145 = ORIENTED_EDGE ( 'NONE', *, *, #118, .T. ) ;
#146 = DIRECTION ( 'NONE',  ( 3.491481338843133355E-15, -0.0000000000000000000, 1.000000000000000000 ) ) ;
#147 = PLANE ( 'NONE',  #8 ) ;
#148 = APPROVAL_PERSON_ORGANIZATION ( #199, #151, #67 ) ;
#149 =( NAMED_UNIT ( * ) SI_UNIT ( $, .STERADIAN. ) SOLID_ANGLE_UNIT ( ) );
#150 = CLOSED_SHELL ( 'NONE', ( #47, #75, #4, #213, #140, #102 ) ) ;
#151 = APPROVAL ( #232, 'UNSPECIFIED' ) ;
#152 = LOCAL_TIME ( 9, 6, 4.000000000000000000, #178 ) ;
#153 = ADVANCED_FACE ( 'NONE', ( #198, #177 ), #26, .T. ) ;
#154 = ORIENTED_EDGE ( 'NONE', *, *, #227, .T. ) ;
#155 = AXIS2_PLACEMENT_3D ( 'NONE', #38, #116, #229 ) ;
#156 = EDGE_LOOP ( 'NONE', ( #186 ) ) ;
#157 = PRODUCT_DEFINITION ( 'UNKNOWN', '', #39, #144 ) ;
#158 = PLANE ( 'NONE',  #30 ) ;
#159 = DIRECTION ( 'NONE',  ( -3.491481338843133355E-15, 1.224646799147353207E-16, -1.000000000000000000 ) ) ;
#160 = CALENDAR_DATE ( 2021, 15, 11 ) ;
#161 = CARTESIAN_POINT ( 'NONE',  ( 1.250000000000018208, 0.0000000000000000000, 5.299999999999996270 ) ) ;
#162 = TOROIDAL_SURFACE ( 'NONE', #62, 3.249999999999999556, 1.999999999999999112 ) ;
#163 = DIRECTION ( 'NONE',  ( 3.491481338843133355E-15, -0.0000000000000000000, 1.000000000000000000 ) ) ;
#164 = DIRECTION ( 'NONE',  ( -3.491481338843133355E-15, 1.224646799147353207E-16, -1.000000000000000000 ) ) ;
#165 = APPROVAL_STATUS ( 'not_yet_approved' ) ;
#166 = APPROVAL_ROLE ( '' ) ;
#167 = FACE_OUTER_BOUND ( 'NONE', #109, .T. ) ;
#168 = DATE_AND_TIME ( #160, #65 ) ;
#169 = CC_DESIGN_SECURITY_CLASSIFICATION ( #44, ( #39 ) ) ;
#170 = AXIS2_PLACEMENT_3D ( 'NONE', #128, #206, #110 ) ;
#171 = DIRECTION ( 'NONE',  ( 1.000000000000000000, 0.0000000000000000000, -3.491481338843133355E-15 ) ) ;
#172 = CIRCLE ( 'NONE', #66, 1.999999999999999556 ) ;
#173 = CC_DESIGN_DATE_AND_TIME_ASSIGNMENT ( #242, #35, ( #157 ) ) ;
#174 = CC_DESIGN_APPROVAL ( #131, ( #39 ) ) ;
#175 = DIRECTION ( 'NONE',  ( 3.491481338843133355E-15, -0.0000000000000000000, 1.000000000000000000 ) ) ;
#176 = CLOSED_SHELL ( 'NONE', ( #14, #153, #42 ) ) ;
#177 = FACE_OUTER_BOUND ( 'NONE', #103, .T. ) ;
#178 = COORDINATED_UNIVERSAL_TIME_OFFSET ( 1, 0, .AHEAD. ) ;
#179 = CARTESIAN_POINT ( 'NONE',  ( 5.525773638610973710E-14, 0.0000000000000000000, 15.82644471598946723 ) ) ;
#180 = DIRECTION ( 'NONE',  ( 0.0000000000000000000, 1.000000000000000000, 0.0000000000000000000 ) ) ;
#181 = DIRECTION ( 'NONE',  ( 3.491481338843133355E-15, -0.0000000000000000000, 1.000000000000000000 ) ) ;
#182 = CYLINDRICAL_SURFACE ( 'NONE', #106, 1.999999999999999556 ) ;
#183 = APPROVAL_DATE_TIME ( #168, #131 ) ;
#184 = APPROVAL_STATUS ( 'not_yet_approved' ) ;
#185 = EDGE_CURVE ( 'NONE', #90, #90, #85, .T. ) ;
#186 = ORIENTED_EDGE ( 'NONE', *, *, #61, .F. ) ;
#187 = PERSON_AND_ORGANIZATION_ROLE ( 'design_owner' ) ;
#188 = DIRECTION ( 'NONE',  ( 4.275831445896958607E-31, 1.000000000000000000, 1.224646799147353207E-16 ) ) ;
#189 = APPLICATION_PROTOCOL_DEFINITION ( 'international standard', 'config_control_design', 1994, #214 ) ;
#190 = CARTESIAN_POINT ( 'NONE',  ( 1.850485109586860678E-14, 0.0000000000000000000, 5.299999999999999822 ) ) ;
#191 = CARTESIAN_POINT ( 'NONE',  ( 1.312796983405018394E-13, -4.604671964794048513E-15, 37.60000000000000853 ) ) ;
#192 = PERSON_AND_ORGANIZATION ( #23, #84 ) ;
#193 = CC_DESIGN_PERSON_AND_ORGANIZATION_ASSIGNMENT ( #209, #219, ( #44 ) ) ;
#194 = CONICAL_SURFACE ( 'NONE', #3, 3.999999999999999112, 0.2617993877991427465 ) ;
#195 = CC_DESIGN_PERSON_AND_ORGANIZATION_ASSIGNMENT ( #60, #239, ( #39 ) ) ;
#196 = CIRCLE ( 'NONE', #92, 1.249999999999999778 ) ;
#197 = ORIENTED_EDGE ( 'NONE', *, *, #185, .T. ) ;
#198 = FACE_OUTER_BOUND ( 'NONE', #43, .T. ) ;
#199 = PERSON_AND_ORGANIZATION ( #23, #84 ) ;
#200 = CARTESIAN_POINT ( 'NONE',  ( 0.0000000000000000000, 0.0000000000000000000, 0.0000000000000000000 ) ) ;
#201 = EDGE_LOOP ( 'NONE', ( #72 ) ) ;
#202 = LOCAL_TIME ( 9, 6, 4.000000000000000000, #50 ) ;
#203 = DIRECTION ( 'NONE',  ( -4.275831445896958607E-31, -1.000000000000000000, -1.224646799147353207E-16 ) ) ;
#204 = COORDINATED_UNIVERSAL_TIME_OFFSET ( 1, 0, .AHEAD. ) ;
#205 = AXIS2_PLACEMENT_3D ( 'NONE', #134, #82, #171 ) ;
#206 = DIRECTION ( 'NONE',  ( 0.0000000000000000000, 0.0000000000000000000, 1.000000000000000000 ) ) ;
#207 = VERTEX_POINT ( 'NONE', #31 ) ;
#208 = FACE_OUTER_BOUND ( 'NONE', #54, .T. ) ;
#209 = PERSON_AND_ORGANIZATION ( #23, #84 ) ;
#210 = PERSON_AND_ORGANIZATION_ROLE ( 'design_supplier' ) ;
#211 = CARTESIAN_POINT ( 'NONE',  ( 2.031217482809386159E-14, 0.0000000000000000000, 5.817638090205027979 ) ) ;
#212 = FACE_OUTER_BOUND ( 'NONE', #91, .T. ) ;
#213 = ADVANCED_FACE ( 'NONE', ( #16, #167 ), #162, .F. ) ;
#214 = APPLICATION_CONTEXT ( 'configuration controlled 3d designs of mechanical parts and assemblies' ) ;
#215 = AXIS2_PLACEMENT_3D ( 'NONE', #191, #94, #104 ) ;
#216 = DATE_AND_TIME ( #46, #152 ) ;
#217 = EDGE_LOOP ( 'NONE', ( #197 ) ) ;
#218 = SHAPE_DEFINITION_REPRESENTATION ( #119, #125 ) ;
#219 = PERSON_AND_ORGANIZATION_ROLE ( 'classification_officer' ) ;
#220 = DIRECTION ( 'NONE',  ( 4.275831445896958607E-31, 1.000000000000000000, 1.224646799147353207E-16 ) ) ;
#221 = PERSON_AND_ORGANIZATION ( #23, #84 ) ;
#222 = CARTESIAN_POINT ( 'NONE',  ( 1.850485109586860994E-14, 0.0000000000000000000, 5.300000000000000711 ) ) ;
#223 = LOCAL_TIME ( 9, 6, 4.000000000000000000, #11 ) ;
#224 = AXIS2_PLACEMENT_3D ( 'NONE', #200, #181, #73 ) ;
#225 = CARTESIAN_POINT ( 'NONE',  ( 1.326762908760390675E-13, -8.377713426430119900E-31, 38.00000000000000711 ) ) ;
#226 = APPROVAL_ROLE ( '' ) ;
#227 = EDGE_CURVE ( 'NONE', #79, #79, #196, .T. ) ;
#228 = PERSON_AND_ORGANIZATION ( #23, #84 ) ;
#229 = DIRECTION ( 'NONE',  ( 0.0000000000000000000, 1.000000000000000000, 0.0000000000000000000 ) ) ;
#230 = CIRCLE ( 'NONE', #120, 1.318148347421860267 ) ;
#231 = CC_DESIGN_PERSON_AND_ORGANIZATION_ASSIGNMENT ( #55, #210, ( #39 ) ) ;
#232 = APPROVAL_STATUS ( 'not_yet_approved' ) ;
#233 = ORIENTED_EDGE ( 'NONE', *, *, #227, .F. ) ;
#234 = APPROVAL_PERSON_ORGANIZATION ( #221, #80, #166 ) ;
#235 = DIRECTION ( 'NONE',  ( 3.491481338843133355E-15, -0.0000000000000000000, 1.000000000000000000 ) ) ;
#236 = EDGE_CURVE ( 'NONE', #241, #241, #230, .T. ) ;
#237 = ORIENTED_EDGE ( 'NONE', *, *, #137, .F. ) ;
#238 = FACE_OUTER_BOUND ( 'NONE', #142, .T. ) ;
#239 = PERSON_AND_ORGANIZATION_ROLE ( 'creator' ) ;
#240 = APPROVAL_DATE_TIME ( #89, #80 ) ;
#241 = VERTEX_POINT ( 'NONE', #76 ) ;
#242 = DATE_AND_TIME ( #93, #243 ) ;
#243 = LOCAL_TIME ( 9, 6, 4.000000000000000000, #132 ) ;
ENDSEC;
END-ISO-10303-21;
