ISO-10303-21;
HEADER;
FILE_DESCRIPTION (( 'STEP AP203' ),
    '1' );
FILE_NAME ('334960.step',
    '2021-11-15T08:06:03',
    ( '' ),
    ( '' ),
    'SwSTEP 2.0',
    'SolidWorks 2019',
    '' );
FILE_SCHEMA (( 'CONFIG_CONTROL_DESIGN' ));
ENDSEC;

DATA;
#1 = CIRCLE ( 'NONE', #208, 0.9999999999999995559 ) ;
#2 = APPROVAL_DATE_TIME ( #165, #87 ) ;
#3 = EDGE_CURVE ( 'NONE', #217, #217, #150, .T. ) ;
#4 = APPROVAL_STATUS ( 'not_yet_approved' ) ;
#5 = APPROVAL_ROLE ( '' ) ;
#6 = AXIS2_PLACEMENT_3D ( 'NONE', #178, #47, #13 ) ;
#7 = ADVANCED_FACE ( 'NONE', ( #148 ), #30, .F. ) ;
#8 = EDGE_LOOP ( 'NONE', ( #52 ) ) ;
#9 = DIRECTION ( 'NONE',  ( -3.491481338843133355E-15, 1.224646799147353207E-16, -1.000000000000000000 ) ) ;
#10 = CARTESIAN_POINT ( 'NONE',  ( 1.326762908760390675E-13, 1.599999999999997202, 38.00000000000000711 ) ) ;
#11 = FACE_OUTER_BOUND ( 'NONE', #111, .T. ) ;
#12 = ORIENTED_EDGE ( 'NONE', *, *, #211, .F. ) ;
#13 = DIRECTION ( 'NONE',  ( -4.275831445896958607E-31, -1.000000000000000000, -1.224646799147353207E-16 ) ) ;
#14 = ADVANCED_FACE ( 'NONE', ( #67, #65 ), #104, .F. ) ;
#15 = CARTESIAN_POINT ( 'NONE',  ( -4.275831445896957731E-31, 1.499759782661857608E-32, -1.224646799147353207E-16 ) ) ;
#16 = PERSON_AND_ORGANIZATION ( #91, #214 ) ;
#17 = PERSON_AND_ORGANIZATION_ROLE ( 'design_owner' ) ;
#18 = ADVANCED_FACE ( 'NONE', ( #42, #182 ), #36, .T. ) ;
#19 = PERSON_AND_ORGANIZATION_ROLE ( 'creator' ) ;
#20 = CALENDAR_DATE ( 2021, 15, 11 ) ;
#21 = ADVANCED_FACE ( 'NONE', ( #161 ), #234, .T. ) ;
#22 = APPLICATION_CONTEXT ( 'configuration controlled 3d designs of mechanical parts and assemblies' ) ;
#23 = AXIS2_PLACEMENT_3D ( 'NONE', #28, #62, #97 ) ;
#24 = ORIENTED_EDGE ( 'NONE', *, *, #53, .F. ) ;
#25 = CC_DESIGN_APPROVAL ( #192, ( #228 ) ) ;
#26 = DIRECTION ( 'NONE',  ( 4.275831445896958607E-31, 1.000000000000000000, 1.224646799147353207E-16 ) ) ;
#27 = DIRECTION ( 'NONE',  ( 0.0000000000000000000, 1.000000000000000000, 0.0000000000000000000 ) ) ;
#28 = CARTESIAN_POINT ( 'NONE',  ( 1.312796983405018394E-13, -4.604671964794048513E-15, 37.60000000000000853 ) ) ;
#29 = CARTESIAN_POINT ( 'NONE',  ( 1.000000000000014655, 0.0000000000000000000, 4.299999999999996270 ) ) ;
#30 = PLANE ( 'NONE',  #44 ) ;
#31 = ORIENTED_EDGE ( 'NONE', *, *, #120, .F. ) ;
#32 = APPLICATION_PROTOCOL_DEFINITION ( 'international standard', 'config_control_design', 1994, #22 ) ;
#33 = PLANE ( 'NONE',  #6 ) ;
#34 = APPROVAL_PERSON_ORGANIZATION ( #221, #192, #48 ) ;
#35 = ORIENTED_EDGE ( 'NONE', *, *, #193, .T. ) ;
#36 = CONICAL_SURFACE ( 'NONE', #60, 4.000000000000000000, 0.2617993877991428575 ) ;
#37 = ADVANCED_FACE ( 'NONE', ( #142, #121 ), #128, .T. ) ;
#38 = COORDINATED_UNIVERSAL_TIME_OFFSET ( 1, 0, .AHEAD. ) ;
#39 = DATE_AND_TIME ( #20, #54 ) ;
#40 = AXIS2_PLACEMENT_3D ( 'NONE', #49, #103, #26 ) ;
#41 = EDGE_CURVE ( 'NONE', #116, #116, #76, .T. ) ;
#42 = FACE_OUTER_BOUND ( 'NONE', #231, .T. ) ;
#43 = MANIFOLD_SOLID_BREP ( 'Corps-Déplacer/Copier1[1]', #71 ) ;
#44 = AXIS2_PLACEMENT_3D ( 'NONE', #80, #92, #75 ) ;
#45 = DIRECTION ( 'NONE',  ( 3.491481338843133355E-15, -0.0000000000000000000, 1.000000000000000000 ) ) ;
#46 = DIRECTION ( 'NONE',  ( 1.000000000000000000, 0.0000000000000000000, -3.469446951953614189E-15 ) ) ;
#47 = DIRECTION ( 'NONE',  ( 3.491481338843133355E-15, -1.224646799147353207E-16, 1.000000000000000000 ) ) ;
#48 = APPROVAL_ROLE ( '' ) ;
#49 = CARTESIAN_POINT ( 'NONE',  ( 1.326762908760390675E-13, -8.377713426430119900E-31, 38.00000000000000711 ) ) ;
#50 = DIRECTION ( 'NONE',  ( 1.000000000000000000, 0.0000000000000000000, -3.491481338843133355E-15 ) ) ;
#51 = PERSON_AND_ORGANIZATION_ROLE ( 'design_supplier' ) ;
#52 = ORIENTED_EDGE ( 'NONE', *, *, #41, .F. ) ;
#53 = EDGE_CURVE ( 'NONE', #240, #240, #149, .T. ) ;
#54 = LOCAL_TIME ( 9, 6, 3.000000000000000000, #188 ) ;
#55 = ORIENTED_EDGE ( 'NONE', *, *, #211, .T. ) ;
#56 = DIRECTION ( 'NONE',  ( 1.000000000000000000, 0.0000000000000000000, 0.0000000000000000000 ) ) ;
#57 = LOCAL_TIME ( 9, 6, 3.000000000000000000, #68 ) ;
#58 = CARTESIAN_POINT ( 'NONE',  ( 2.000000000000029310, 0.0000000000000000000, 8.295355802743754836 ) ) ;
#59 = CARTESIAN_POINT ( 'NONE',  ( 1.682069348925072508E-14, 0.0000000000000000000, 4.817638090205026202 ) ) ;
#60 = AXIS2_PLACEMENT_3D ( 'NONE', #218, #205, #46 ) ;
#61 = CARTESIAN_POINT ( 'NONE',  ( 1.000000000000014655, 0.0000000000000000000, 4.299999999999996270 ) ) ;
#62 = DIRECTION ( 'NONE',  ( -3.491481338843133355E-15, 1.224646799147353207E-16, -1.000000000000000000 ) ) ;
#63 = CARTESIAN_POINT ( 'NONE',  ( 1.501336975702547343E-14, 0.0000000000000000000, 4.299999999999999822 ) ) ;
#64 = ADVANCED_FACE ( 'NONE', ( #11, #172 ), #135, .T. ) ;
#65 = FACE_OUTER_BOUND ( 'NONE', #8, .T. ) ;
#66 = CIRCLE ( 'NONE', #88, 1.000000000000000000 ) ;
#67 = FACE_OUTER_BOUND ( 'NONE', #89, .T. ) ;
#68 = COORDINATED_UNIVERSAL_TIME_OFFSET ( 1, 0, .AHEAD. ) ;
#69 = LOCAL_TIME ( 9, 6, 3.000000000000000000, #38 ) ;
#70 = PRODUCT_DEFINITION_FORMATION_WITH_SPECIFIED_SOURCE ( 'ANY', '', #202, .NOT_KNOWN. ) ;
#71 = CLOSED_SHELL ( 'NONE', ( #224, #37, #168, #14, #18, #7 ) ) ;
#72 = ORIENTED_EDGE ( 'NONE', *, *, #3, .F. ) ;
#73 = FACE_OUTER_BOUND ( 'NONE', #129, .T. ) ;
#74 = APPROVAL_PERSON_ORGANIZATION ( #203, #201, #81 ) ;
#75 = DIRECTION ( 'NONE',  ( -4.275831445896958607E-31, -1.000000000000000000, -1.224646799147353207E-16 ) ) ;
#76 = CIRCLE ( 'NONE', #138, 1.068148347421859157 ) ;
#77 = CARTESIAN_POINT ( 'NONE',  ( 1.312796983405018394E-13, -4.604671964794048513E-15, 37.60000000000000853 ) ) ;
#78 = APPROVAL_DATE_TIME ( #144, #192 ) ;
#79 = EDGE_CURVE ( 'NONE', #102, #102, #195, .T. ) ;
#80 = CARTESIAN_POINT ( 'NONE',  ( 1.501336975702547343E-14, 1.499759782661856787E-32, 4.299999999999999822 ) ) ;
#81 = APPROVAL_ROLE ( '' ) ;
#82 = VERTEX_POINT ( 'NONE', #58 ) ;
#83 = DIRECTION ( 'NONE',  ( 4.275831445896958607E-31, 1.000000000000000000, 1.224646799147353207E-16 ) ) ;
#84 = APPROVAL_STATUS ( 'not_yet_approved' ) ;
#85 = CC_DESIGN_PERSON_AND_ORGANIZATION_ASSIGNMENT ( #16, #17, ( #202 ) ) ;
#86 = DATE_TIME_ROLE ( 'classification_date' ) ;
#87 = APPROVAL ( #4, 'UNSPECIFIED' ) ;
#88 = AXIS2_PLACEMENT_3D ( 'NONE', #174, #45, #223 ) ;
#89 = EDGE_LOOP ( 'NONE', ( #209 ) ) ;
#90 = ORIENTED_EDGE ( 'NONE', *, *, #41, .T. ) ;
#91 = PERSON ( 'UNSPECIFIED', 'UNSPECIFIED', 'UNSPECIFIED', ('UNSPECIFIED'), ('UNSPECIFIED'), ('UNSPECIFIED') ) ;
#92 = DIRECTION ( 'NONE',  ( 3.491481338843133355E-15, -1.224646799147353207E-16, 1.000000000000000000 ) ) ;
#93 = CARTESIAN_POINT ( 'NONE',  ( 1.501336975702547343E-14, 0.0000000000000000000, 4.299999999999999822 ) ) ;
#94 = EDGE_LOOP ( 'NONE', ( #153 ) ) ;
#95 = CARTESIAN_POINT ( 'NONE',  ( 1.068148347421876032, 0.0000000000000000000, 4.817638090205022650 ) ) ;
#96 = AXIS2_PLACEMENT_3D ( 'NONE', #215, #112, #27 ) ;
#97 = DIRECTION ( 'NONE',  ( 0.0000000000000000000, 1.000000000000000000, 0.0000000000000000000 ) ) ;
#98 = AXIS2_PLACEMENT_3D ( 'NONE', #77, #9, #159 ) ;
#99 = EDGE_LOOP ( 'NONE', ( #118 ) ) ;
#100 = FACE_OUTER_BOUND ( 'NONE', #94, .T. ) ;
#101 = DIRECTION ( 'NONE',  ( 3.491481338843133355E-15, -0.0000000000000000000, 1.000000000000000000 ) ) ;
#102 = VERTEX_POINT ( 'NONE', #155 ) ;
#103 = DIRECTION ( 'NONE',  ( -3.491481338843133355E-15, 1.224646799147353207E-16, -1.000000000000000000 ) ) ;
#104 = TOROIDAL_SURFACE ( 'NONE', #185, 2.999999999999999556, 2.000000000000000000 ) ;
#105 = EDGE_LOOP ( 'NONE', ( #35 ) ) ;
#106 = APPROVAL_DATE_TIME ( #107, #201 ) ;
#107 = DATE_AND_TIME ( #190, #69 ) ;
#108 = CALENDAR_DATE ( 2021, 15, 11 ) ;
#109 = SECURITY_CLASSIFICATION ( '', '', #164 ) ;
#110 = AXIS2_PLACEMENT_3D ( 'NONE', #115, #199, #156 ) ;
#111 = EDGE_LOOP ( 'NONE', ( #55 ) ) ;
#112 = DIRECTION ( 'NONE',  ( -3.491481338843133355E-15, 1.224646799147353207E-16, -1.000000000000000000 ) ) ;
#113 = CARTESIAN_POINT ( 'NONE',  ( 1.000000000000000000, 0.0000000000000000000, -3.981340058502074737E-15 ) ) ;
#114 = CC_DESIGN_PERSON_AND_ORGANIZATION_ASSIGNMENT ( #147, #19, ( #70 ) ) ;
#115 = CARTESIAN_POINT ( 'NONE',  ( 0.0000000000000000000, 0.0000000000000000000, 0.0000000000000000000 ) ) ;
#116 = VERTEX_POINT ( 'NONE', #95 ) ;
#117 = DATE_AND_TIME ( #143, #191 ) ;
#118 = ORIENTED_EDGE ( 'NONE', *, *, #79, .F. ) ;
#119 = FACE_OUTER_BOUND ( 'NONE', #227, .T. ) ;
#120 = EDGE_CURVE ( 'NONE', #82, #82, #183, .T. ) ;
#121 = FACE_OUTER_BOUND ( 'NONE', #99, .T. ) ;
#122 = DATE_TIME_ROLE ( 'creation_date' ) ;
#123 = APPROVAL_STATUS ( 'not_yet_approved' ) ;
#124 = APPLICATION_CONTEXT ( 'configuration controlled 3d designs of mechanical parts and assemblies' ) ;
#125 = PERSON_AND_ORGANIZATION_ROLE ( 'classification_officer' ) ;
#126 = MANIFOLD_SOLID_BREP ( 'Corps-Déplacer/Copier1[2]', #210 ) ;
#127 = SHAPE_DEFINITION_REPRESENTATION ( #198, #189 ) ;
#128 = CONICAL_SURFACE ( 'NONE', #98, 1.999999999999999556, 0.7853981633974485010 ) ;
#129 = EDGE_LOOP ( 'NONE', ( #131 ) ) ;
#130 = CC_DESIGN_PERSON_AND_ORGANIZATION_ASSIGNMENT ( #229, #125, ( #109 ) ) ;
#131 = ORIENTED_EDGE ( 'NONE', *, *, #79, .T. ) ;
#132 = MECHANICAL_CONTEXT ( 'NONE', #22, 'mechanical' ) ;
#133 = DIRECTION ( 'NONE',  ( 4.275831445896958607E-31, 1.000000000000000000, 1.224646799147353207E-16 ) ) ;
#134 = AXIS2_PLACEMENT_3D ( 'NONE', #15, #239, #83 ) ;
#135 = CYLINDRICAL_SURFACE ( 'NONE', #110, 0.9999999999999997780 ) ;
#136 =( NAMED_UNIT ( * ) PLANE_ANGLE_UNIT ( ) SI_UNIT ( $, .RADIAN. ) );
#137 = DIRECTION ( 'NONE',  ( 1.000000000000000000, 0.0000000000000000000, -3.469446951953614189E-15 ) ) ;
#138 = AXIS2_PLACEMENT_3D ( 'NONE', #59, #101, #206 ) ;
#139 = VERTEX_POINT ( 'NONE', #113 ) ;
#140 = CARTESIAN_POINT ( 'NONE',  ( 2.896307998434394272E-14, 0.0000000000000000000, 8.295355802743761942 ) ) ;
#141 = DESIGN_CONTEXT ( 'detailed design', #124, 'design' ) ;
#142 = FACE_BOUND ( 'NONE', #152, .T. ) ;
#143 = CALENDAR_DATE ( 2021, 15, 11 ) ;
#144 = DATE_AND_TIME ( #243, #169 ) ;
#145 = AXIS2_PLACEMENT_3D ( 'NONE', #140, #175, #137 ) ;
#146 = PRODUCT_RELATED_PRODUCT_CATEGORY ( 'detail', '', ( #202 ) ) ;
#147 = PERSON_AND_ORGANIZATION ( #91, #214 ) ;
#148 = FACE_OUTER_BOUND ( 'NONE', #213, .T. ) ;
#149 = CIRCLE ( 'NONE', #96, 1.600000000000001865 ) ;
#150 = CIRCLE ( 'NONE', #216, 0.9999999999999995559 ) ;
#151 = CC_DESIGN_PERSON_AND_ORGANIZATION_ASSIGNMENT ( #226, #51, ( #70 ) ) ;
#152 = EDGE_LOOP ( 'NONE', ( #194 ) ) ;
#153 = ORIENTED_EDGE ( 'NONE', *, *, #120, .T. ) ;
#154 = DIRECTION ( 'NONE',  ( -3.491481338843133355E-15, 1.224646799147353207E-16, -1.000000000000000000 ) ) ;
#155 = CARTESIAN_POINT ( 'NONE',  ( 1.312796983405018394E-13, 1.999999999999994893, 37.60000000000000853 ) ) ;
#156 = DIRECTION ( 'NONE',  ( 1.000000000000000000, 0.0000000000000000000, -3.491481338843133355E-15 ) ) ;
#157 = UNCERTAINTY_MEASURE_WITH_UNIT (LENGTH_MEASURE( 1.000000000000000082E-05 ), #181, 'distance_accuracy_value', 'NONE');
#158 = CARTESIAN_POINT ( 'NONE',  ( 0.0000000000000000000, 0.0000000000000000000, 0.0000000000000000000 ) ) ;
#159 = DIRECTION ( 'NONE',  ( 0.0000000000000000000, 1.000000000000000000, 0.0000000000000000000 ) ) ;
#160 = PERSON_AND_ORGANIZATION ( #91, #214 ) ;
#161 = FACE_OUTER_BOUND ( 'NONE', #242, .T. ) ;
#162 = ADVANCED_FACE ( 'NONE', ( #220 ), #33, .T. ) ;
#163 = CC_DESIGN_SECURITY_CLASSIFICATION ( #109, ( #70 ) ) ;
#164 = SECURITY_CLASSIFICATION_LEVEL ( 'unclassified' ) ;
#165 = DATE_AND_TIME ( #108, #57 ) ;
#166 = PERSON_AND_ORGANIZATION ( #91, #214 ) ;
#167 = APPROVAL_PERSON_ORGANIZATION ( #166, #87, #5 ) ;
#168 = ADVANCED_FACE ( 'NONE', ( #119 ), #222, .F. ) ;
#169 = LOCAL_TIME ( 9, 6, 3.000000000000000000, #176 ) ;
#170 = ORIENTED_EDGE ( 'NONE', *, *, #193, .F. ) ;
#171 = CARTESIAN_POINT ( 'NONE',  ( 0.0000000000000000000, 0.0000000000000000000, 0.0000000000000000000 ) ) ;
#172 = FACE_OUTER_BOUND ( 'NONE', #204, .T. ) ;
#173 = AXIS2_PLACEMENT_3D ( 'NONE', #171, #232, #56 ) ;
#174 = CARTESIAN_POINT ( 'NONE',  ( -1.710332578358783092E-30, 0.0000000000000000000, -4.898587196589412829E-16 ) ) ;
#175 = DIRECTION ( 'NONE',  ( 3.491481338843133355E-15, -0.0000000000000000000, 1.000000000000000000 ) ) ;
#176 = COORDINATED_UNIVERSAL_TIME_OFFSET ( 1, 0, .AHEAD. ) ;
#177 = CYLINDRICAL_SURFACE ( 'NONE', #230, 2.000000000000000000 ) ;
#178 = CARTESIAN_POINT ( 'NONE',  ( 1.501336975702547343E-14, 1.499759782661856787E-32, 4.299999999999999822 ) ) ;
#179 = PERSON_AND_ORGANIZATION_ROLE ( 'creator' ) ;
#180 = CC_DESIGN_DATE_AND_TIME_ASSIGNMENT ( #117, #122, ( #228 ) ) ;
#181 =( LENGTH_UNIT ( ) NAMED_UNIT ( * ) SI_UNIT ( .MILLI., .METRE. ) );
#182 = FACE_BOUND ( 'NONE', #196, .T. ) ;
#183 = CIRCLE ( 'NONE', #145, 2.000000000000000000 ) ;
#184 = CC_DESIGN_DATE_AND_TIME_ASSIGNMENT ( #39, #86, ( #109 ) ) ;
#185 = AXIS2_PLACEMENT_3D ( 'NONE', #197, #241, #50 ) ;
#186 = DIRECTION ( 'NONE',  ( 3.491481338843133355E-15, -0.0000000000000000000, 1.000000000000000000 ) ) ;
#187 = DIRECTION ( 'NONE',  ( 1.000000000000000000, 0.0000000000000000000, -3.469446951953615767E-15 ) ) ;
#188 = COORDINATED_UNIVERSAL_TIME_OFFSET ( 1, 0, .AHEAD. ) ;
#189 = ADVANCED_BREP_SHAPE_REPRESENTATION ( '334960', ( #43, #126, #173 ), #225 ) ;
#190 = CALENDAR_DATE ( 2021, 15, 11 ) ;
#191 = LOCAL_TIME ( 9, 6, 3.000000000000000000, #237 ) ;
#192 = APPROVAL ( #84, 'UNSPECIFIED' ) ;
#193 = EDGE_CURVE ( 'NONE', #236, #236, #1, .T. ) ;
#194 = ORIENTED_EDGE ( 'NONE', *, *, #53, .T. ) ;
#195 = CIRCLE ( 'NONE', #23, 1.999999999999999556 ) ;
#196 = EDGE_LOOP ( 'NONE', ( #90 ) ) ;
#197 = CARTESIAN_POINT ( 'NONE',  ( 1.501336975702547343E-14, 0.0000000000000000000, 4.299999999999999822 ) ) ;
#198 = PRODUCT_DEFINITION_SHAPE ( 'NONE', 'NONE',  #228 ) ;
#199 = DIRECTION ( 'NONE',  ( 3.491481338843133355E-15, -0.0000000000000000000, 1.000000000000000000 ) ) ;
#200 = CC_DESIGN_APPROVAL ( #201, ( #70 ) ) ;
#201 = APPROVAL ( #123, 'UNSPECIFIED' ) ;
#202 = PRODUCT ( '334960', '334960', '', ( #132 ) ) ;
#203 = PERSON_AND_ORGANIZATION ( #91, #214 ) ;
#204 = EDGE_LOOP ( 'NONE', ( #170 ) ) ;
#205 = DIRECTION ( 'NONE',  ( 3.491481338843133355E-15, -0.0000000000000000000, 1.000000000000000000 ) ) ;
#206 = DIRECTION ( 'NONE',  ( 1.000000000000000000, 0.0000000000000000000, -3.248094668055855295E-15 ) ) ;
#207 = APPLICATION_PROTOCOL_DEFINITION ( 'international standard', 'config_control_design', 1994, #124 ) ;
#208 = AXIS2_PLACEMENT_3D ( 'NONE', #63, #233, #219 ) ;
#209 = ORIENTED_EDGE ( 'NONE', *, *, #3, .T. ) ;
#210 = CLOSED_SHELL ( 'NONE', ( #162, #64, #21 ) ) ;
#211 = EDGE_CURVE ( 'NONE', #139, #139, #66, .T. ) ;
#212 = CC_DESIGN_APPROVAL ( #87, ( #109 ) ) ;
#213 = EDGE_LOOP ( 'NONE', ( #72 ) ) ;
#214 = ORGANIZATION ( 'UNSPECIFIED', 'UNSPECIFIED', '' ) ;
#215 = CARTESIAN_POINT ( 'NONE',  ( 1.326762908760390675E-13, -4.653657836759942730E-15, 38.00000000000000711 ) ) ;
#216 = AXIS2_PLACEMENT_3D ( 'NONE', #93, #186, #187 ) ;
#217 = VERTEX_POINT ( 'NONE', #29 ) ;
#218 = CARTESIAN_POINT ( 'NONE',  ( 5.502385148482699200E-14, 0.0000000000000000000, 15.75945741788171262 ) ) ;
#219 = DIRECTION ( 'NONE',  ( 1.000000000000000000, 0.0000000000000000000, -3.469446951953615767E-15 ) ) ;
#220 = FACE_OUTER_BOUND ( 'NONE', #105, .T. ) ;
#221 = PERSON_AND_ORGANIZATION ( #91, #214 ) ;
#222 = PLANE ( 'NONE',  #40 ) ;
#223 = DIRECTION ( 'NONE',  ( 1.000000000000000000, 0.0000000000000000000, -3.491481338843133355E-15 ) ) ;
#224 = ADVANCED_FACE ( 'NONE', ( #73, #100 ), #177, .T. ) ;
#225 =( GEOMETRIC_REPRESENTATION_CONTEXT ( 3 ) GLOBAL_UNCERTAINTY_ASSIGNED_CONTEXT ( ( #157 ) ) GLOBAL_UNIT_ASSIGNED_CONTEXT ( ( #181, #136, #238 ) ) REPRESENTATION_CONTEXT ( 'NONE', 'WORKASPACE' ) );
#226 = PERSON_AND_ORGANIZATION ( #91, #214 ) ;
#227 = EDGE_LOOP ( 'NONE', ( #24 ) ) ;
#228 = PRODUCT_DEFINITION ( 'UNKNOWN', '', #70, #141 ) ;
#229 = PERSON_AND_ORGANIZATION ( #91, #214 ) ;
#230 = AXIS2_PLACEMENT_3D ( 'NONE', #158, #154, #133 ) ;
#231 = EDGE_LOOP ( 'NONE', ( #31 ) ) ;
#232 = DIRECTION ( 'NONE',  ( 0.0000000000000000000, 0.0000000000000000000, 1.000000000000000000 ) ) ;
#233 = DIRECTION ( 'NONE',  ( 3.491481338843133355E-15, -0.0000000000000000000, 1.000000000000000000 ) ) ;
#234 = PLANE ( 'NONE',  #134 ) ;
#235 = CC_DESIGN_PERSON_AND_ORGANIZATION_ASSIGNMENT ( #160, #179, ( #228 ) ) ;
#236 = VERTEX_POINT ( 'NONE', #61 ) ;
#237 = COORDINATED_UNIVERSAL_TIME_OFFSET ( 1, 0, .AHEAD. ) ;
#238 =( NAMED_UNIT ( * ) SI_UNIT ( $, .STERADIAN. ) SOLID_ANGLE_UNIT ( ) );
#239 = DIRECTION ( 'NONE',  ( -3.491481338843133355E-15, 1.224646799147353207E-16, -1.000000000000000000 ) ) ;
#240 = VERTEX_POINT ( 'NONE', #10 ) ;
#241 = DIRECTION ( 'NONE',  ( 3.491481338843133355E-15, -0.0000000000000000000, 1.000000000000000000 ) ) ;
#242 = EDGE_LOOP ( 'NONE', ( #12 ) ) ;
#243 = CALENDAR_DATE ( 2021, 15, 11 ) ;
ENDSEC;
END-ISO-10303-21;
