ISO-10303-21;
HEADER;
FILE_DESCRIPTION (( 'STEP AP203' ),
    '1' );
FILE_NAME ('334959.step',
    '2021-11-15T08:06:03',
    ( '' ),
    ( '' ),
    'SwSTEP 2.0',
    'SolidWorks 2019',
    '' );
FILE_SCHEMA (( 'CONFIG_CONTROL_DESIGN' ));
ENDSEC;

DATA;
#1 = CLOSED_SHELL ( 'NONE', ( #14, #79, #92 ) ) ;
#2 = DIRECTION ( 'NONE',  ( 0.0000000000000000000, 1.000000000000000000, 0.0000000000000000000 ) ) ;
#3 = PRODUCT_DEFINITION ( 'UNKNOWN', '', #94, #119 ) ;
#4 = ORIENTED_EDGE ( 'NONE', *, *, #60, .F. ) ;
#5 = PERSON ( 'UNSPECIFIED', 'UNSPECIFIED', 'UNSPECIFIED', ('UNSPECIFIED'), ('UNSPECIFIED'), ('UNSPECIFIED') ) ;
#6 = APPROVAL ( #193, 'UNSPECIFIED' ) ;
#7 = AXIS2_PLACEMENT_3D ( 'NONE', #173, #88, #50 ) ;
#8 = CYLINDRICAL_SURFACE ( 'NONE', #214, 0.9499999999999996225 ) ;
#9 = APPLICATION_CONTEXT ( 'configuration controlled 3d designs of mechanical parts and assemblies' ) ;
#10 = MANIFOLD_SOLID_BREP ( 'Corps-Déplacer/Copier1[2]', #1 ) ;
#11 =( NAMED_UNIT ( * ) PLANE_ANGLE_UNIT ( ) SI_UNIT ( $, .RADIAN. ) );
#12 = DIRECTION ( 'NONE',  ( -4.275831445896958607E-31, -1.000000000000000000, -1.224646799147353207E-16 ) ) ;
#13 = DIRECTION ( 'NONE',  ( 3.491481338843133355E-15, -0.0000000000000000000, 1.000000000000000000 ) ) ;
#14 = ADVANCED_FACE ( 'NONE', ( #131 ), #113, .T. ) ;
#15 = CARTESIAN_POINT ( 'NONE',  ( 2.000000000000028866, 0.0000000000000000000, 8.181958343122207822 ) ) ;
#16 = PERSON_AND_ORGANIZATION ( #5, #150 ) ;
#17 = MECHANICAL_CONTEXT ( 'NONE', #25, 'mechanical' ) ;
#18 = CALENDAR_DATE ( 2021, 15, 11 ) ;
#19 = EDGE_CURVE ( 'NONE', #95, #95, #168, .T. ) ;
#20 = PERSON_AND_ORGANIZATION ( #5, #150 ) ;
#21 = AXIS2_PLACEMENT_3D ( 'NONE', #62, #99, #100 ) ;
#22 = EDGE_LOOP ( 'NONE', ( #33 ) ) ;
#23 = DIRECTION ( 'NONE',  ( 3.491481338843133355E-15, -0.0000000000000000000, 1.000000000000000000 ) ) ;
#24 = SECURITY_CLASSIFICATION ( '', '', #207 ) ;
#25 = APPLICATION_CONTEXT ( 'configuration controlled 3d designs of mechanical parts and assemblies' ) ;
#26 = FACE_OUTER_BOUND ( 'NONE', #209, .T. ) ;
#27 = FACE_OUTER_BOUND ( 'NONE', #72, .T. ) ;
#28 = AXIS2_PLACEMENT_3D ( 'NONE', #74, #234, #180 ) ;
#29 = CARTESIAN_POINT ( 'NONE',  ( 2.856715487020309803E-14, 0.0000000000000000000, 8.181958343122214927 ) ) ;
#30 = DIRECTION ( 'NONE',  ( 3.491481338843133355E-15, -0.0000000000000000000, 1.000000000000000000 ) ) ;
#31 = FACE_OUTER_BOUND ( 'NONE', #164, .T. ) ;
#32 = DATE_AND_TIME ( #18, #44 ) ;
#33 = ORIENTED_EDGE ( 'NONE', *, *, #42, .F. ) ;
#34 = COORDINATED_UNIVERSAL_TIME_OFFSET ( 1, 0, .AHEAD. ) ;
#35 = EDGE_CURVE ( 'NONE', #196, #196, #101, .T. ) ;
#36 = CARTESIAN_POINT ( 'NONE',  ( 1.396592535537253342E-14, 0.0000000000000000000, 4.000000000000000000 ) ) ;
#37 = FACE_OUTER_BOUND ( 'NONE', #241, .T. ) ;
#38 = AXIS2_PLACEMENT_3D ( 'NONE', #146, #212, #189 ) ;
#39 = ADVANCED_FACE ( 'NONE', ( #167 ), #147, .F. ) ;
#40 = DIRECTION ( 'NONE',  ( 1.000000000000000000, 0.0000000000000000000, -3.491481338843133355E-15 ) ) ;
#41 = FACE_OUTER_BOUND ( 'NONE', #22, .T. ) ;
#42 = EDGE_CURVE ( 'NONE', #238, #238, #152, .T. ) ;
#43 = PLANE ( 'NONE',  #183 ) ;
#44 = LOCAL_TIME ( 9, 6, 3.000000000000000000, #128 ) ;
#45 =( LENGTH_UNIT ( ) NAMED_UNIT ( * ) SI_UNIT ( .MILLI., .METRE. ) );
#46 =( GEOMETRIC_REPRESENTATION_CONTEXT ( 3 ) GLOBAL_UNCERTAINTY_ASSIGNED_CONTEXT ( ( #154 ) ) GLOBAL_UNIT_ASSIGNED_CONTEXT ( ( #45, #11, #76 ) ) REPRESENTATION_CONTEXT ( 'NONE', 'WORKASPACE' ) );
#47 = APPROVAL_DATE_TIME ( #225, #135 ) ;
#48 = DATE_AND_TIME ( #126, #191 ) ;
#49 = CC_DESIGN_DATE_AND_TIME_ASSIGNMENT ( #32, #63, ( #24 ) ) ;
#50 = DIRECTION ( 'NONE',  ( -4.275831445896958607E-31, -1.000000000000000000, -1.224646799147353207E-16 ) ) ;
#51 = FACE_OUTER_BOUND ( 'NONE', #86, .T. ) ;
#52 = DIRECTION ( 'NONE',  ( 3.491481338843133355E-15, -0.0000000000000000000, 1.000000000000000000 ) ) ;
#53 = ADVANCED_FACE ( 'NONE', ( #51, #37 ), #90, .T. ) ;
#54 = AXIS2_PLACEMENT_3D ( 'NONE', #138, #156, #202 ) ;
#55 = AXIS2_PLACEMENT_3D ( 'NONE', #159, #176, #178 ) ;
#56 = FACE_OUTER_BOUND ( 'NONE', #104, .T. ) ;
#57 = CLOSED_SHELL ( 'NONE', ( #53, #216, #39, #85, #213, #172 ) ) ;
#58 = APPLICATION_PROTOCOL_DEFINITION ( 'international standard', 'config_control_design', 1994, #9 ) ;
#59 = FACE_BOUND ( 'NONE', #141, .T. ) ;
#60 = EDGE_CURVE ( 'NONE', #197, #197, #203, .T. ) ;
#61 = VERTEX_POINT ( 'NONE', #65 ) ;
#62 = CARTESIAN_POINT ( 'NONE',  ( 0.0000000000000000000, 0.0000000000000000000, 0.0000000000000000000 ) ) ;
#63 = DATE_TIME_ROLE ( 'classification_date' ) ;
#64 = ORIENTED_EDGE ( 'NONE', *, *, #149, .F. ) ;
#65 = CARTESIAN_POINT ( 'NONE',  ( 1.326762908760390675E-13, 1.599999999999997202, 38.00000000000000711 ) ) ;
#66 = DATE_TIME_ROLE ( 'creation_date' ) ;
#67 = DIRECTION ( 'NONE',  ( 1.000000000000000000, 0.0000000000000000000, -3.407604560513110593E-15 ) ) ;
#68 = APPROVAL_STATUS ( 'not_yet_approved' ) ;
#69 = TOROIDAL_SURFACE ( 'NONE', #132, 2.949999999999998845, 2.000000000000000000 ) ;
#70 = DIRECTION ( 'NONE',  ( -3.491481338843133355E-15, 1.224646799147353207E-16, -1.000000000000000000 ) ) ;
#71 = PERSON_AND_ORGANIZATION ( #5, #150 ) ;
#72 = EDGE_LOOP ( 'NONE', ( #160 ) ) ;
#73 = DIRECTION ( 'NONE',  ( 1.000000000000000000, 0.0000000000000000000, -3.652049423109069602E-15 ) ) ;
#74 = CARTESIAN_POINT ( 'NONE',  ( -4.275831445896957731E-31, 1.499759782661857608E-32, -1.224646799147353207E-16 ) ) ;
#75 = EDGE_CURVE ( 'NONE', #61, #61, #124, .T. ) ;
#76 =( NAMED_UNIT ( * ) SI_UNIT ( $, .STERADIAN. ) SOLID_ANGLE_UNIT ( ) );
#77 = PERSON_AND_ORGANIZATION_ROLE ( 'creator' ) ;
#78 = PERSON_AND_ORGANIZATION ( #5, #150 ) ;
#79 = ADVANCED_FACE ( 'NONE', ( #31, #106 ), #8, .T. ) ;
#80 = MANIFOLD_SOLID_BREP ( 'Corps-Déplacer/Copier1[1]', #57 ) ;
#81 = PERSON_AND_ORGANIZATION ( #5, #150 ) ;
#82 = EDGE_LOOP ( 'NONE', ( #158 ) ) ;
#83 = CONICAL_SURFACE ( 'NONE', #187, 1.999999999999999556, 0.7853981633974485010 ) ;
#84 = APPROVAL_STATUS ( 'not_yet_approved' ) ;
#85 = ADVANCED_FACE ( 'NONE', ( #56, #26 ), #69, .F. ) ;
#86 = EDGE_LOOP ( 'NONE', ( #223 ) ) ;
#87 = DIRECTION ( 'NONE',  ( 1.000000000000000000, 0.0000000000000000000, -3.652049423109069602E-15 ) ) ;
#88 = DIRECTION ( 'NONE',  ( 3.491481338843133355E-15, -1.224646799147353207E-16, 1.000000000000000000 ) ) ;
#89 = AXIS2_PLACEMENT_3D ( 'NONE', #162, #30, #67 ) ;
#90 = CYLINDRICAL_SURFACE ( 'NONE', #233, 2.000000000000000000 ) ;
#91 = CARTESIAN_POINT ( 'NONE',  ( 1.396592535537253342E-14, 0.0000000000000000000, 4.000000000000000000 ) ) ;
#92 = ADVANCED_FACE ( 'NONE', ( #41 ), #151, .T. ) ;
#93 = CARTESIAN_POINT ( 'NONE',  ( 0.0000000000000000000, 0.0000000000000000000, 0.0000000000000000000 ) ) ;
#94 = PRODUCT_DEFINITION_FORMATION_WITH_SPECIFIED_SOURCE ( 'ANY', '', #175, .NOT_KNOWN. ) ;
#95 = VERTEX_POINT ( 'NONE', #177 ) ;
#96 = DIRECTION ( 'NONE',  ( 0.0000000000000000000, 1.000000000000000000, 0.0000000000000000000 ) ) ;
#97 = AXIS2_PLACEMENT_3D ( 'NONE', #36, #109, #73 ) ;
#98 = FACE_OUTER_BOUND ( 'NONE', #226, .T. ) ;
#99 = DIRECTION ( 'NONE',  ( 0.0000000000000000000, 0.0000000000000000000, 1.000000000000000000 ) ) ;
#100 = DIRECTION ( 'NONE',  ( 1.000000000000000000, 0.0000000000000000000, 0.0000000000000000000 ) ) ;
#101 = CIRCLE ( 'NONE', #198, 0.9499999999999995115 ) ;
#102 = APPROVAL_ROLE ( '' ) ;
#103 = EDGE_LOOP ( 'NONE', ( #64 ) ) ;
#104 = EDGE_LOOP ( 'NONE', ( #107 ) ) ;
#105 = SHAPE_DEFINITION_REPRESENTATION ( #217, #115 ) ;
#106 = FACE_OUTER_BOUND ( 'NONE', #144, .T. ) ;
#107 = ORIENTED_EDGE ( 'NONE', *, *, #19, .T. ) ;
#108 = CONICAL_SURFACE ( 'NONE', #55, 4.000000000000000000, 0.2617993877991429130 ) ;
#109 = DIRECTION ( 'NONE',  ( 3.491481338843133355E-15, -0.0000000000000000000, 1.000000000000000000 ) ) ;
#110 = CARTESIAN_POINT ( 'NONE',  ( 0.0000000000000000000, 0.0000000000000000000, 0.0000000000000000000 ) ) ;
#111 = AXIS2_PLACEMENT_3D ( 'NONE', #227, #70, #2 ) ;
#112 = APPROVAL_ROLE ( '' ) ;
#113 = PLANE ( 'NONE',  #7 ) ;
#114 = DIRECTION ( 'NONE',  ( 3.491481338843133355E-15, -0.0000000000000000000, 1.000000000000000000 ) ) ;
#115 = ADVANCED_BREP_SHAPE_REPRESENTATION ( '334959', ( #80, #10, #21 ), #46 ) ;
#116 = CARTESIAN_POINT ( 'NONE',  ( 1.312796983405018394E-13, 1.999999999999994893, 37.60000000000000853 ) ) ;
#117 = PRODUCT_RELATED_PRODUCT_CATEGORY ( 'detail', '', ( #175 ) ) ;
#118 = CARTESIAN_POINT ( 'NONE',  ( 0.9500000000000133893, 0.0000000000000000000, 3.999999999999996447 ) ) ;
#119 = DESIGN_CONTEXT ( 'detailed design', #9, 'design' ) ;
#120 = APPROVAL_PERSON_ORGANIZATION ( #78, #6, #112 ) ;
#121 = EDGE_CURVE ( 'NONE', #220, #220, #163, .T. ) ;
#122 = APPLICATION_PROTOCOL_DEFINITION ( 'international standard', 'config_control_design', 1994, #25 ) ;
#123 = EDGE_LOOP ( 'NONE', ( #184 ) ) ;
#124 = CIRCLE ( 'NONE', #111, 1.600000000000001865 ) ;
#125 = DIRECTION ( 'NONE',  ( 4.275831445896958607E-31, 1.000000000000000000, 1.224646799147353207E-16 ) ) ;
#126 = CALENDAR_DATE ( 2021, 15, 11 ) ;
#127 = ORIENTED_EDGE ( 'NONE', *, *, #149, .T. ) ;
#128 = COORDINATED_UNIVERSAL_TIME_OFFSET ( 1, 0, .AHEAD. ) ;
#129 = APPROVAL_DATE_TIME ( #185, #6 ) ;
#130 = CC_DESIGN_APPROVAL ( #135, ( #24 ) ) ;
#131 = FACE_OUTER_BOUND ( 'NONE', #123, .T. ) ;
#132 = AXIS2_PLACEMENT_3D ( 'NONE', #91, #114, #148 ) ;
#133 = CC_DESIGN_PERSON_AND_ORGANIZATION_ASSIGNMENT ( #71, #181, ( #94 ) ) ;
#134 = AXIS2_PLACEMENT_3D ( 'NONE', #169, #23, #232 ) ;
#135 = APPROVAL ( #84, 'UNSPECIFIED' ) ;
#136 = PERSON_AND_ORGANIZATION ( #5, #150 ) ;
#137 = FACE_OUTER_BOUND ( 'NONE', #103, .T. ) ;
#138 = CARTESIAN_POINT ( 'NONE',  ( 1.312796983405018394E-13, -4.604671964794048513E-15, 37.60000000000000853 ) ) ;
#139 = AXIS2_PLACEMENT_3D ( 'NONE', #29, #13, #142 ) ;
#140 = APPROVAL_ROLE ( '' ) ;
#141 = EDGE_LOOP ( 'NONE', ( #206 ) ) ;
#142 = DIRECTION ( 'NONE',  ( 1.000000000000000000, 0.0000000000000000000, -3.469446951953614189E-15 ) ) ;
#143 = APPROVAL_DATE_TIME ( #157, #161 ) ;
#144 = EDGE_LOOP ( 'NONE', ( #186 ) ) ;
#145 = COORDINATED_UNIVERSAL_TIME_OFFSET ( 1, 0, .AHEAD. ) ;
#146 = CARTESIAN_POINT ( 'NONE',  ( 1.326762908760390675E-13, -8.377713426430119900E-31, 38.00000000000000711 ) ) ;
#147 = PLANE ( 'NONE',  #38 ) ;
#148 = DIRECTION ( 'NONE',  ( 1.000000000000000000, 0.0000000000000000000, -3.491481338843133355E-15 ) ) ;
#149 = EDGE_CURVE ( 'NONE', #201, #201, #221, .T. ) ;
#150 = ORGANIZATION ( 'UNSPECIFIED', 'UNSPECIFIED', '' ) ;
#151 = PLANE ( 'NONE',  #28 ) ;
#152 = CIRCLE ( 'NONE', #134, 0.9499999999999998446 ) ;
#153 = CARTESIAN_POINT ( 'NONE',  ( 1.312796983405018394E-13, -4.604671964794048513E-15, 37.60000000000000853 ) ) ;
#154 = UNCERTAINTY_MEASURE_WITH_UNIT (LENGTH_MEASURE( 1.000000000000000082E-05 ), #45, 'distance_accuracy_value', 'NONE');
#155 = DIRECTION ( 'NONE',  ( 3.491481338843133355E-15, -1.224646799147353207E-16, 1.000000000000000000 ) ) ;
#156 = DIRECTION ( 'NONE',  ( -3.491481338843133355E-15, 1.224646799147353207E-16, -1.000000000000000000 ) ) ;
#157 = DATE_AND_TIME ( #228, #170 ) ;
#158 = ORIENTED_EDGE ( 'NONE', *, *, #75, .F. ) ;
#159 = CARTESIAN_POINT ( 'NONE',  ( 5.462792637068613470E-14, 0.0000000000000000000, 15.64605995826016205 ) ) ;
#160 = ORIENTED_EDGE ( 'NONE', *, *, #121, .F. ) ;
#161 = APPROVAL ( #68, 'UNSPECIFIED' ) ;
#162 = CARTESIAN_POINT ( 'NONE',  ( 1.577324908759778822E-14, 0.0000000000000000000, 4.517638090205028156 ) ) ;
#163 = CIRCLE ( 'NONE', #54, 1.999999999999999556 ) ;
#164 = EDGE_LOOP ( 'NONE', ( #182 ) ) ;
#165 = COORDINATED_UNIVERSAL_TIME_OFFSET ( 1, 0, .AHEAD. ) ;
#166 = ORIENTED_EDGE ( 'NONE', *, *, #75, .T. ) ;
#167 = FACE_OUTER_BOUND ( 'NONE', #82, .T. ) ;
#168 = CIRCLE ( 'NONE', #97, 0.9499999999999995115 ) ;
#169 = CARTESIAN_POINT ( 'NONE',  ( -1.710332578358783092E-30, 0.0000000000000000000, -4.898587196589412829E-16 ) ) ;
#170 = LOCAL_TIME ( 9, 6, 3.000000000000000000, #34 ) ;
#171 = CARTESIAN_POINT ( 'NONE',  ( 1.396592535537253342E-14, 0.0000000000000000000, 4.000000000000000000 ) ) ;
#172 = ADVANCED_FACE ( 'NONE', ( #98 ), #43, .F. ) ;
#173 = CARTESIAN_POINT ( 'NONE',  ( 1.396592535537253342E-14, 1.499759782661856787E-32, 4.000000000000000000 ) ) ;
#174 = CC_DESIGN_APPROVAL ( #161, ( #94 ) ) ;
#175 = PRODUCT ( '334959', '334959', '', ( #17 ) ) ;
#176 = DIRECTION ( 'NONE',  ( 3.491481338843133355E-15, -0.0000000000000000000, 1.000000000000000000 ) ) ;
#177 = CARTESIAN_POINT ( 'NONE',  ( 0.9500000000000133893, 0.0000000000000000000, 3.999999999999996447 ) ) ;
#178 = DIRECTION ( 'NONE',  ( 1.000000000000000000, 0.0000000000000000000, -3.469446951953614189E-15 ) ) ;
#179 = CC_DESIGN_DATE_AND_TIME_ASSIGNMENT ( #48, #66, ( #3 ) ) ;
#180 = DIRECTION ( 'NONE',  ( 4.275831445896958607E-31, 1.000000000000000000, 1.224646799147353207E-16 ) ) ;
#181 = PERSON_AND_ORGANIZATION_ROLE ( 'creator' ) ;
#182 = ORIENTED_EDGE ( 'NONE', *, *, #42, .T. ) ;
#183 = AXIS2_PLACEMENT_3D ( 'NONE', #224, #155, #12 ) ;
#184 = ORIENTED_EDGE ( 'NONE', *, *, #35, .T. ) ;
#185 = DATE_AND_TIME ( #208, #194 ) ;
#186 = ORIENTED_EDGE ( 'NONE', *, *, #35, .F. ) ;
#187 = AXIS2_PLACEMENT_3D ( 'NONE', #153, #199, #96 ) ;
#188 = DIRECTION ( 'NONE',  ( 3.491481338843133355E-15, -0.0000000000000000000, 1.000000000000000000 ) ) ;
#189 = DIRECTION ( 'NONE',  ( 4.275831445896958607E-31, 1.000000000000000000, 1.224646799147353207E-16 ) ) ;
#190 = DIRECTION ( 'NONE',  ( -3.491481338843133355E-15, 1.224646799147353207E-16, -1.000000000000000000 ) ) ;
#191 = LOCAL_TIME ( 9, 6, 3.000000000000000000, #210 ) ;
#192 = CC_DESIGN_PERSON_AND_ORGANIZATION_ASSIGNMENT ( #243, #230, ( #94 ) ) ;
#193 = APPROVAL_STATUS ( 'not_yet_approved' ) ;
#194 = LOCAL_TIME ( 9, 6, 3.000000000000000000, #145 ) ;
#195 = CC_DESIGN_SECURITY_CLASSIFICATION ( #24, ( #94 ) ) ;
#196 = VERTEX_POINT ( 'NONE', #118 ) ;
#197 = VERTEX_POINT ( 'NONE', #235 ) ;
#198 = AXIS2_PLACEMENT_3D ( 'NONE', #171, #188, #87 ) ;
#199 = DIRECTION ( 'NONE',  ( -3.491481338843133355E-15, 1.224646799147353207E-16, -1.000000000000000000 ) ) ;
#200 = CC_DESIGN_PERSON_AND_ORGANIZATION_ASSIGNMENT ( #81, #77, ( #3 ) ) ;
#201 = VERTEX_POINT ( 'NONE', #15 ) ;
#202 = DIRECTION ( 'NONE',  ( 0.0000000000000000000, 1.000000000000000000, 0.0000000000000000000 ) ) ;
#203 = CIRCLE ( 'NONE', #89, 1.018148347421859112 ) ;
#204 = PERSON_AND_ORGANIZATION_ROLE ( 'classification_officer' ) ;
#205 = CC_DESIGN_APPROVAL ( #6, ( #3 ) ) ;
#206 = ORIENTED_EDGE ( 'NONE', *, *, #60, .T. ) ;
#207 = SECURITY_CLASSIFICATION_LEVEL ( 'unclassified' ) ;
#208 = CALENDAR_DATE ( 2021, 15, 11 ) ;
#209 = EDGE_LOOP ( 'NONE', ( #4 ) ) ;
#210 = COORDINATED_UNIVERSAL_TIME_OFFSET ( 1, 0, .AHEAD. ) ;
#211 = APPROVAL_PERSON_ORGANIZATION ( #20, #135, #140 ) ;
#212 = DIRECTION ( 'NONE',  ( -3.491481338843133355E-15, 1.224646799147353207E-16, -1.000000000000000000 ) ) ;
#213 = ADVANCED_FACE ( 'NONE', ( #137, #59 ), #108, .T. ) ;
#214 = AXIS2_PLACEMENT_3D ( 'NONE', #93, #52, #40 ) ;
#215 = EDGE_LOOP ( 'NONE', ( #166 ) ) ;
#216 = ADVANCED_FACE ( 'NONE', ( #242, #27 ), #83, .T. ) ;
#217 = PRODUCT_DEFINITION_SHAPE ( 'NONE', 'NONE',  #3 ) ;
#218 = APPROVAL_PERSON_ORGANIZATION ( #16, #161, #102 ) ;
#219 = PERSON_AND_ORGANIZATION_ROLE ( 'design_owner' ) ;
#220 = VERTEX_POINT ( 'NONE', #116 ) ;
#221 = CIRCLE ( 'NONE', #139, 2.000000000000000000 ) ;
#222 = CALENDAR_DATE ( 2021, 15, 11 ) ;
#223 = ORIENTED_EDGE ( 'NONE', *, *, #121, .T. ) ;
#224 = CARTESIAN_POINT ( 'NONE',  ( 1.396592535537253342E-14, 1.499759782661856787E-32, 4.000000000000000000 ) ) ;
#225 = DATE_AND_TIME ( #222, #239 ) ;
#226 = EDGE_LOOP ( 'NONE', ( #229 ) ) ;
#227 = CARTESIAN_POINT ( 'NONE',  ( 1.326762908760390675E-13, -4.653657836759942730E-15, 38.00000000000000711 ) ) ;
#228 = CALENDAR_DATE ( 2021, 15, 11 ) ;
#229 = ORIENTED_EDGE ( 'NONE', *, *, #19, .F. ) ;
#230 = PERSON_AND_ORGANIZATION_ROLE ( 'design_supplier' ) ;
#231 = CC_DESIGN_PERSON_AND_ORGANIZATION_ASSIGNMENT ( #136, #219, ( #175 ) ) ;
#232 = DIRECTION ( 'NONE',  ( 1.000000000000000000, 0.0000000000000000000, -3.491481338843132961E-15 ) ) ;
#233 = AXIS2_PLACEMENT_3D ( 'NONE', #110, #190, #125 ) ;
#234 = DIRECTION ( 'NONE',  ( -3.491481338843133355E-15, 1.224646799147353207E-16, -1.000000000000000000 ) ) ;
#235 = CARTESIAN_POINT ( 'NONE',  ( 1.018148347421874877, 0.0000000000000000000, 4.517638090205024604 ) ) ;
#236 = CARTESIAN_POINT ( 'NONE',  ( 0.9499999999999998446, 0.0000000000000000000, -3.806765991559917280E-15 ) ) ;
#237 = CC_DESIGN_PERSON_AND_ORGANIZATION_ASSIGNMENT ( #240, #204, ( #24 ) ) ;
#238 = VERTEX_POINT ( 'NONE', #236 ) ;
#239 = LOCAL_TIME ( 9, 6, 3.000000000000000000, #165 ) ;
#240 = PERSON_AND_ORGANIZATION ( #5, #150 ) ;
#241 = EDGE_LOOP ( 'NONE', ( #127 ) ) ;
#242 = FACE_BOUND ( 'NONE', #215, .T. ) ;
#243 = PERSON_AND_ORGANIZATION ( #5, #150 ) ;
ENDSEC;
END-ISO-10303-21;
