ISO-10303-21;
HEADER;
FILE_DESCRIPTION (( 'STEP AP203' ),
    '1' );
FILE_NAME ('334958.step',
    '2021-11-15T08:06:02',
    ( '' ),
    ( '' ),
    'SwSTEP 2.0',
    'SolidWorks 2019',
    '' );
FILE_SCHEMA (( 'CONFIG_CONTROL_DESIGN' ));
ENDSEC;

DATA;
#1 = CC_DESIGN_PERSON_AND_ORGANIZATION_ASSIGNMENT ( #37, #129, ( #15 ) ) ;
#2 = CLOSED_SHELL ( 'NONE', ( #21, #233, #116, #144, #110, #75 ) ) ;
#3 = PERSON_AND_ORGANIZATION ( #93, #210 ) ;
#4 = APPROVAL_DATE_TIME ( #58, #38 ) ;
#5 = PERSON_AND_ORGANIZATION ( #93, #210 ) ;
#6 = CIRCLE ( 'NONE', #232, 1.600000000000001865 ) ;
#7 = FACE_OUTER_BOUND ( 'NONE', #171, .T. ) ;
#8 = MANIFOLD_SOLID_BREP ( 'Corps-Déplacer/Copier1[1]', #2 ) ;
#9 = AXIS2_PLACEMENT_3D ( 'NONE', #193, #197, #43 ) ;
#10 = CARTESIAN_POINT ( 'NONE',  ( 0.9000000000000125677, 0.0000000000000000000, 3.799999999999995381 ) ) ;
#11 = CC_DESIGN_APPROVAL ( #194, ( #153 ) ) ;
#12 = EDGE_LOOP ( 'NONE', ( #230 ) ) ;
#13 = CARTESIAN_POINT ( 'NONE',  ( 0.9000000000000125677, 0.0000000000000000000, 3.799999999999995381 ) ) ;
#14 = EDGE_LOOP ( 'NONE', ( #243 ) ) ;
#15 = PRODUCT_DEFINITION ( 'UNKNOWN', '', #153, #76 ) ;
#16 =( GEOMETRIC_REPRESENTATION_CONTEXT ( 3 ) GLOBAL_UNCERTAINTY_ASSIGNED_CONTEXT ( ( #169 ) ) GLOBAL_UNIT_ASSIGNED_CONTEXT ( ( #136, #138, #183 ) ) REPRESENTATION_CONTEXT ( 'NONE', 'WORKASPACE' ) );
#17 = EDGE_LOOP ( 'NONE', ( #127 ) ) ;
#18 = EDGE_CURVE ( 'NONE', #141, #141, #6, .T. ) ;
#19 = CARTESIAN_POINT ( 'NONE',  ( 1.507495281982915840E-14, 0.0000000000000000000, 4.317638090205027090 ) ) ;
#20 = AXIS2_PLACEMENT_3D ( 'NONE', #79, #100, #82 ) ;
#21 = ADVANCED_FACE ( 'NONE', ( #117, #36 ), #57, .T. ) ;
#22 = CARTESIAN_POINT ( 'NONE',  ( -1.710332578358783092E-30, 0.0000000000000000000, -4.898587196589412829E-16 ) ) ;
#23 = CC_DESIGN_DATE_AND_TIME_ASSIGNMENT ( #157, #218, ( #111 ) ) ;
#24 = DIRECTION ( 'NONE',  ( 1.000000000000000000, 0.0000000000000000000, -3.469446951953614189E-15 ) ) ;
#25 = PLANE ( 'NONE',  #139 ) ;
#26 = CIRCLE ( 'NONE', #56, 0.8999999999999993561 ) ;
#27 = ADVANCED_FACE ( 'NONE', ( #90 ), #89, .T. ) ;
#28 = CARTESIAN_POINT ( 'NONE',  ( 0.8999999999999998002, 0.0000000000000000000, -3.632191924617760612E-15 ) ) ;
#29 = EDGE_CURVE ( 'NONE', #156, #156, #80, .T. ) ;
#30 = CALENDAR_DATE ( 2021, 15, 11 ) ;
#31 = ORIENTED_EDGE ( 'NONE', *, *, #104, .T. ) ;
#32 = CIRCLE ( 'NONE', #121, 0.8999999999999993561 ) ;
#33 = EDGE_LOOP ( 'NONE', ( #31 ) ) ;
#34 = CC_DESIGN_PERSON_AND_ORGANIZATION_ASSIGNMENT ( #208, #50, ( #153 ) ) ;
#35 = TOROIDAL_SURFACE ( 'NONE', #174, 2.899999999999998579, 2.000000000000000000 ) ;
#36 = FACE_OUTER_BOUND ( 'NONE', #17, .T. ) ;
#37 = PERSON_AND_ORGANIZATION ( #93, #210 ) ;
#38 = APPROVAL ( #203, 'UNSPECIFIED' ) ;
#39 = LOCAL_TIME ( 9, 6, 2.000000000000000000, #172 ) ;
#40 = DIRECTION ( 'NONE',  ( -4.275831445896958607E-31, -1.000000000000000000, -1.224646799147353207E-16 ) ) ;
#41 = FACE_OUTER_BOUND ( 'NONE', #52, .T. ) ;
#42 = DATE_AND_TIME ( #132, #39 ) ;
#43 = DIRECTION ( 'NONE',  ( 1.000000000000000000, 0.0000000000000000000, -3.491481338843133355E-15 ) ) ;
#44 = SECURITY_CLASSIFICATION_LEVEL ( 'unclassified' ) ;
#45 = PERSON_AND_ORGANIZATION ( #93, #210 ) ;
#46 = CARTESIAN_POINT ( 'NONE',  ( 2.000000000000028866, 0.0000000000000000000, 8.168560883500656900 ) ) ;
#47 = APPROVAL_PERSON_ORGANIZATION ( #3, #194, #178 ) ;
#48 = APPROVAL_DATE_TIME ( #42, #186 ) ;
#49 = EDGE_LOOP ( 'NONE', ( #85 ) ) ;
#50 = PERSON_AND_ORGANIZATION_ROLE ( 'creator' ) ;
#51 = CIRCLE ( 'NONE', #191, 1.999999999999999556 ) ;
#52 = EDGE_LOOP ( 'NONE', ( #87 ) ) ;
#53 = DATE_TIME_ROLE ( 'creation_date' ) ;
#54 = APPLICATION_CONTEXT ( 'configuration controlled 3d designs of mechanical parts and assemblies' ) ;
#55 = DIRECTION ( 'NONE',  ( 0.0000000000000000000, 1.000000000000000000, 0.0000000000000000000 ) ) ;
#56 = AXIS2_PLACEMENT_3D ( 'NONE', #241, #206, #181 ) ;
#57 = CYLINDRICAL_SURFACE ( 'NONE', #107, 2.000000000000000000 ) ;
#58 = DATE_AND_TIME ( #30, #164 ) ;
#59 = DIRECTION ( 'NONE',  ( 4.275831445896958607E-31, 1.000000000000000000, 1.224646799147353207E-16 ) ) ;
#60 = CC_DESIGN_APPROVAL ( #38, ( #15 ) ) ;
#61 = CARTESIAN_POINT ( 'NONE',  ( 5.458114939042959704E-14, 0.0000000000000000000, 15.63266249863861468 ) ) ;
#62 = APPROVAL_ROLE ( '' ) ;
#63 = PLANE ( 'NONE',  #159 ) ;
#64 = EDGE_CURVE ( 'NONE', #201, #201, #32, .T. ) ;
#65 = DIRECTION ( 'NONE',  ( 1.000000000000000000, 0.0000000000000000000, -3.491481338843133750E-15 ) ) ;
#66 = PERSON_AND_ORGANIZATION ( #93, #210 ) ;
#67 = PERSON_AND_ORGANIZATION_ROLE ( 'classification_officer' ) ;
#68 = CC_DESIGN_PERSON_AND_ORGANIZATION_ASSIGNMENT ( #5, #67, ( #111 ) ) ;
#69 = APPLICATION_PROTOCOL_DEFINITION ( 'international standard', 'config_control_design', 1994, #54 ) ;
#70 = CARTESIAN_POINT ( 'NONE',  ( -4.275831445896957731E-31, 1.499759782661857608E-32, -1.224646799147353207E-16 ) ) ;
#71 = APPROVAL_DATE_TIME ( #198, #194 ) ;
#72 = EDGE_LOOP ( 'NONE', ( #187 ) ) ;
#73 = DIRECTION ( 'NONE',  ( 3.491481338843133355E-15, -1.224646799147353207E-16, 1.000000000000000000 ) ) ;
#74 = PRODUCT_DEFINITION_SHAPE ( 'NONE', 'NONE',  #15 ) ;
#75 = ADVANCED_FACE ( 'NONE', ( #168 ), #192, .F. ) ;
#76 = DESIGN_CONTEXT ( 'detailed design', #54, 'design' ) ;
#77 = FACE_BOUND ( 'NONE', #147, .T. ) ;
#78 = CARTESIAN_POINT ( 'NONE',  ( 1.326762908760390202E-14, 0.0000000000000000000, 3.799999999999998490 ) ) ;
#79 = CARTESIAN_POINT ( 'NONE',  ( 2.852037788994654144E-14, 0.0000000000000000000, 8.168560883500664005 ) ) ;
#80 = CIRCLE ( 'NONE', #134, 0.9681483474218585128 ) ;
#81 = APPROVAL_PERSON_ORGANIZATION ( #45, #186, #62 ) ;
#82 = DIRECTION ( 'NONE',  ( 1.000000000000000000, 0.0000000000000000000, -3.469446951953614189E-15 ) ) ;
#83 = CARTESIAN_POINT ( 'NONE',  ( 1.312796983405018394E-13, 1.999999999999994893, 37.60000000000000853 ) ) ;
#84 = AXIS2_PLACEMENT_3D ( 'NONE', #166, #73, #150 ) ;
#85 = ORIENTED_EDGE ( 'NONE', *, *, #235, .F. ) ;
#86 = FACE_OUTER_BOUND ( 'NONE', #72, .T. ) ;
#87 = ORIENTED_EDGE ( 'NONE', *, *, #18, .F. ) ;
#88 = LOCAL_TIME ( 9, 6, 2.000000000000000000, #137 ) ;
#89 = PLANE ( 'NONE',  #84 ) ;
#90 = FACE_OUTER_BOUND ( 'NONE', #146, .T. ) ;
#91 = CC_DESIGN_APPROVAL ( #186, ( #111 ) ) ;
#92 = PRODUCT ( '334958', '334958', '', ( #221 ) ) ;
#93 = PERSON ( 'UNSPECIFIED', 'UNSPECIFIED', 'UNSPECIFIED', ('UNSPECIFIED'), ('UNSPECIFIED'), ('UNSPECIFIED') ) ;
#94 = CARTESIAN_POINT ( 'NONE',  ( 1.326762908760390517E-14, -8.239936510889832712E-16, 3.799999999999999378 ) ) ;
#95 = DIRECTION ( 'NONE',  ( 3.491481338843133355E-15, -0.0000000000000000000, 1.000000000000000000 ) ) ;
#96 = APPROVAL_STATUS ( 'not_yet_approved' ) ;
#97 = DIRECTION ( 'NONE',  ( -3.491481338843133355E-15, 1.224646799147353207E-16, -1.000000000000000000 ) ) ;
#98 = DIRECTION ( 'NONE',  ( -3.491481338843133355E-15, 1.224646799147353207E-16, -1.000000000000000000 ) ) ;
#99 = ADVANCED_FACE ( 'NONE', ( #212, #154 ), #115, .T. ) ;
#100 = DIRECTION ( 'NONE',  ( 3.491481338843133355E-15, -0.0000000000000000000, 1.000000000000000000 ) ) ;
#101 = AXIS2_PLACEMENT_3D ( 'NONE', #94, #170, #40 ) ;
#102 = FACE_BOUND ( 'NONE', #14, .T. ) ;
#103 = APPROVAL_ROLE ( '' ) ;
#104 = EDGE_CURVE ( 'NONE', #179, #179, #113, .T. ) ;
#105 = APPLICATION_CONTEXT ( 'configuration controlled 3d designs of mechanical parts and assemblies' ) ;
#106 = DIRECTION ( 'NONE',  ( 0.0000000000000000000, 1.000000000000000000, 0.0000000000000000000 ) ) ;
#107 = AXIS2_PLACEMENT_3D ( 'NONE', #188, #211, #59 ) ;
#108 = DIRECTION ( 'NONE',  ( -3.491481338843133355E-15, 1.224646799147353207E-16, -1.000000000000000000 ) ) ;
#109 = VERTEX_POINT ( 'NONE', #46 ) ;
#110 = ADVANCED_FACE ( 'NONE', ( #234, #77 ), #239, .T. ) ;
#111 = SECURITY_CLASSIFICATION ( '', '', #44 ) ;
#112 = CARTESIAN_POINT ( 'NONE',  ( 1.326762908760390675E-13, -4.653657836759942730E-15, 38.00000000000000711 ) ) ;
#113 = CIRCLE ( 'NONE', #227, 0.8999999999999998002 ) ;
#114 = DIRECTION ( 'NONE',  ( -3.491481338843133355E-15, 1.224646799147353207E-16, -1.000000000000000000 ) ) ;
#115 = CYLINDRICAL_SURFACE ( 'NONE', #9, 0.8999999999999995781 ) ;
#116 = ADVANCED_FACE ( 'NONE', ( #41 ), #63, .F. ) ;
#117 = FACE_OUTER_BOUND ( 'NONE', #226, .T. ) ;
#118 = CONICAL_SURFACE ( 'NONE', #220, 1.999999999999999556, 0.7853981633974485010 ) ;
#119 = CALENDAR_DATE ( 2021, 15, 11 ) ;
#120 = VERTEX_POINT ( 'NONE', #83 ) ;
#121 = AXIS2_PLACEMENT_3D ( 'NONE', #231, #189, #151 ) ;
#122 = APPROVAL_STATUS ( 'not_yet_approved' ) ;
#123 = COORDINATED_UNIVERSAL_TIME_OFFSET ( 1, 0, .AHEAD. ) ;
#124 = ORIENTED_EDGE ( 'NONE', *, *, #64, .F. ) ;
#125 = AXIS2_PLACEMENT_3D ( 'NONE', #61, #175, #24 ) ;
#126 = CARTESIAN_POINT ( 'NONE',  ( 1.326762908760390675E-13, 1.599999999999997202, 38.00000000000000711 ) ) ;
#127 = ORIENTED_EDGE ( 'NONE', *, *, #216, .T. ) ;
#128 = CC_DESIGN_PERSON_AND_ORGANIZATION_ASSIGNMENT ( #240, #219, ( #92 ) ) ;
#129 = PERSON_AND_ORGANIZATION_ROLE ( 'creator' ) ;
#130 = ORIENTED_EDGE ( 'NONE', *, *, #29, .F. ) ;
#131 = DIRECTION ( 'NONE',  ( 3.491481338843133355E-15, -0.0000000000000000000, 1.000000000000000000 ) ) ;
#132 = CALENDAR_DATE ( 2021, 15, 11 ) ;
#133 = DIRECTION ( 'NONE',  ( 1.000000000000000000, 0.0000000000000000000, -3.491481338843133355E-15 ) ) ;
#134 = AXIS2_PLACEMENT_3D ( 'NONE', #19, #131, #209 ) ;
#135 = PERSON_AND_ORGANIZATION ( #93, #210 ) ;
#136 =( LENGTH_UNIT ( ) NAMED_UNIT ( * ) SI_UNIT ( .MILLI., .METRE. ) );
#137 = COORDINATED_UNIVERSAL_TIME_OFFSET ( 1, 0, .AHEAD. ) ;
#138 =( NAMED_UNIT ( * ) PLANE_ANGLE_UNIT ( ) SI_UNIT ( $, .RADIAN. ) );
#139 = AXIS2_PLACEMENT_3D ( 'NONE', #70, #108, #160 ) ;
#140 = CARTESIAN_POINT ( 'NONE',  ( 0.0000000000000000000, 0.0000000000000000000, 0.0000000000000000000 ) ) ;
#141 = VERTEX_POINT ( 'NONE', #126 ) ;
#142 = ORIENTED_EDGE ( 'NONE', *, *, #216, .F. ) ;
#143 = FACE_OUTER_BOUND ( 'NONE', #12, .T. ) ;
#144 = ADVANCED_FACE ( 'NONE', ( #7, #195 ), #35, .F. ) ;
#145 = CALENDAR_DATE ( 2021, 15, 11 ) ;
#146 = EDGE_LOOP ( 'NONE', ( #165 ) ) ;
#147 = EDGE_LOOP ( 'NONE', ( #180 ) ) ;
#148 = AXIS2_PLACEMENT_3D ( 'NONE', #140, #158, #242 ) ;
#149 = APPROVAL_PERSON_ORGANIZATION ( #66, #38, #103 ) ;
#150 = DIRECTION ( 'NONE',  ( -4.275831445896958607E-31, -1.000000000000000000, -1.224646799147353207E-16 ) ) ;
#151 = DIRECTION ( 'NONE',  ( 1.000000000000000000, 0.0000000000000000000, -3.373073425510460825E-15 ) ) ;
#152 = CC_DESIGN_PERSON_AND_ORGANIZATION_ASSIGNMENT ( #135, #215, ( #153 ) ) ;
#153 = PRODUCT_DEFINITION_FORMATION_WITH_SPECIFIED_SOURCE ( 'ANY', '', #92, .NOT_KNOWN. ) ;
#154 = FACE_OUTER_BOUND ( 'NONE', #49, .T. ) ;
#155 = CC_DESIGN_SECURITY_CLASSIFICATION ( #111, ( #153 ) ) ;
#156 = VERTEX_POINT ( 'NONE', #217 ) ;
#157 = DATE_AND_TIME ( #119, #88 ) ;
#158 = DIRECTION ( 'NONE',  ( 0.0000000000000000000, 0.0000000000000000000, 1.000000000000000000 ) ) ;
#159 = AXIS2_PLACEMENT_3D ( 'NONE', #236, #97, #173 ) ;
#160 = DIRECTION ( 'NONE',  ( 4.275831445896958607E-31, 1.000000000000000000, 1.224646799147353207E-16 ) ) ;
#161 = DIRECTION ( 'NONE',  ( -3.491481338843133355E-15, 1.224646799147353207E-16, -1.000000000000000000 ) ) ;
#162 = ORIENTED_EDGE ( 'NONE', *, *, #190, .T. ) ;
#163 = COORDINATED_UNIVERSAL_TIME_OFFSET ( 1, 0, .AHEAD. ) ;
#164 = LOCAL_TIME ( 9, 6, 2.000000000000000000, #204 ) ;
#165 = ORIENTED_EDGE ( 'NONE', *, *, #235, .T. ) ;
#166 = CARTESIAN_POINT ( 'NONE',  ( 1.326762908760390517E-14, -8.239936510889832712E-16, 3.799999999999999378 ) ) ;
#167 = MANIFOLD_SOLID_BREP ( 'Corps-Déplacer/Copier1[2]', #214 ) ;
#168 = FACE_OUTER_BOUND ( 'NONE', #182, .T. ) ;
#169 = UNCERTAINTY_MEASURE_WITH_UNIT (LENGTH_MEASURE( 1.000000000000000082E-05 ), #136, 'distance_accuracy_value', 'NONE');
#170 = DIRECTION ( 'NONE',  ( 3.491481338843133355E-15, -1.224646799147353207E-16, 1.000000000000000000 ) ) ;
#171 = EDGE_LOOP ( 'NONE', ( #207 ) ) ;
#172 = COORDINATED_UNIVERSAL_TIME_OFFSET ( 1, 0, .AHEAD. ) ;
#173 = DIRECTION ( 'NONE',  ( 4.275831445896958607E-31, 1.000000000000000000, 1.224646799147353207E-16 ) ) ;
#174 = AXIS2_PLACEMENT_3D ( 'NONE', #78, #237, #65 ) ;
#175 = DIRECTION ( 'NONE',  ( 3.491481338843133355E-15, -0.0000000000000000000, 1.000000000000000000 ) ) ;
#176 = DIRECTION ( 'NONE',  ( 0.0000000000000000000, 1.000000000000000000, 0.0000000000000000000 ) ) ;
#177 = CARTESIAN_POINT ( 'NONE',  ( 1.312796983405018394E-13, -4.604671964794048513E-15, 37.60000000000000853 ) ) ;
#178 = APPROVAL_ROLE ( '' ) ;
#179 = VERTEX_POINT ( 'NONE', #28 ) ;
#180 = ORIENTED_EDGE ( 'NONE', *, *, #29, .T. ) ;
#181 = DIRECTION ( 'NONE',  ( 1.000000000000000000, 0.0000000000000000000, -3.373073425510460825E-15 ) ) ;
#182 = EDGE_LOOP ( 'NONE', ( #124 ) ) ;
#183 =( NAMED_UNIT ( * ) SI_UNIT ( $, .STERADIAN. ) SOLID_ANGLE_UNIT ( ) );
#184 = EDGE_LOOP ( 'NONE', ( #142 ) ) ;
#185 = LOCAL_TIME ( 9, 6, 2.000000000000000000, #123 ) ;
#186 = APPROVAL ( #96, 'UNSPECIFIED' ) ;
#187 = ORIENTED_EDGE ( 'NONE', *, *, #190, .F. ) ;
#188 = CARTESIAN_POINT ( 'NONE',  ( 0.0000000000000000000, 0.0000000000000000000, 0.0000000000000000000 ) ) ;
#189 = DIRECTION ( 'NONE',  ( 3.491481338843133355E-15, -0.0000000000000000000, 1.000000000000000000 ) ) ;
#190 = EDGE_CURVE ( 'NONE', #120, #120, #51, .T. ) ;
#191 = AXIS2_PLACEMENT_3D ( 'NONE', #213, #98, #176 ) ;
#192 = PLANE ( 'NONE',  #101 ) ;
#193 = CARTESIAN_POINT ( 'NONE',  ( 0.0000000000000000000, 0.0000000000000000000, 0.0000000000000000000 ) ) ;
#194 = APPROVAL ( #122, 'UNSPECIFIED' ) ;
#195 = FACE_OUTER_BOUND ( 'NONE', #224, .T. ) ;
#196 = CIRCLE ( 'NONE', #20, 2.000000000000000000 ) ;
#197 = DIRECTION ( 'NONE',  ( 3.491481338843133355E-15, -0.0000000000000000000, 1.000000000000000000 ) ) ;
#198 = DATE_AND_TIME ( #225, #185 ) ;
#199 = ADVANCED_BREP_SHAPE_REPRESENTATION ( '334958', ( #8, #167, #148 ), #16 ) ;
#200 = CC_DESIGN_DATE_AND_TIME_ASSIGNMENT ( #228, #53, ( #15 ) ) ;
#201 = VERTEX_POINT ( 'NONE', #10 ) ;
#202 = LOCAL_TIME ( 9, 6, 2.000000000000000000, #163 ) ;
#203 = APPROVAL_STATUS ( 'not_yet_approved' ) ;
#204 = COORDINATED_UNIVERSAL_TIME_OFFSET ( 1, 0, .AHEAD. ) ;
#205 = APPLICATION_PROTOCOL_DEFINITION ( 'international standard', 'config_control_design', 1994, #105 ) ;
#206 = DIRECTION ( 'NONE',  ( 3.491481338843133355E-15, -0.0000000000000000000, 1.000000000000000000 ) ) ;
#207 = ORIENTED_EDGE ( 'NONE', *, *, #64, .T. ) ;
#208 = PERSON_AND_ORGANIZATION ( #93, #210 ) ;
#209 = DIRECTION ( 'NONE',  ( 1.000000000000000000, 0.0000000000000000000, -3.583590222709791127E-15 ) ) ;
#210 = ORGANIZATION ( 'UNSPECIFIED', 'UNSPECIFIED', '' ) ;
#211 = DIRECTION ( 'NONE',  ( -3.491481338843133355E-15, 1.224646799147353207E-16, -1.000000000000000000 ) ) ;
#212 = FACE_OUTER_BOUND ( 'NONE', #33, .T. ) ;
#213 = CARTESIAN_POINT ( 'NONE',  ( 1.312796983405018394E-13, -4.604671964794048513E-15, 37.60000000000000853 ) ) ;
#214 = CLOSED_SHELL ( 'NONE', ( #27, #99, #238 ) ) ;
#215 = PERSON_AND_ORGANIZATION_ROLE ( 'design_supplier' ) ;
#216 = EDGE_CURVE ( 'NONE', #109, #109, #196, .T. ) ;
#217 = CARTESIAN_POINT ( 'NONE',  ( 0.9681483474218735008, 0.0000000000000000000, 4.317638090205023538 ) ) ;
#218 = DATE_TIME_ROLE ( 'classification_date' ) ;
#219 = PERSON_AND_ORGANIZATION_ROLE ( 'design_owner' ) ;
#220 = AXIS2_PLACEMENT_3D ( 'NONE', #177, #161, #106 ) ;
#221 = MECHANICAL_CONTEXT ( 'NONE', #105, 'mechanical' ) ;
#222 = VERTEX_POINT ( 'NONE', #13 ) ;
#223 = SHAPE_DEFINITION_REPRESENTATION ( #74, #199 ) ;
#224 = EDGE_LOOP ( 'NONE', ( #130 ) ) ;
#225 = CALENDAR_DATE ( 2021, 15, 11 ) ;
#226 = EDGE_LOOP ( 'NONE', ( #162 ) ) ;
#227 = AXIS2_PLACEMENT_3D ( 'NONE', #22, #95, #133 ) ;
#228 = DATE_AND_TIME ( #145, #202 ) ;
#229 = PRODUCT_RELATED_PRODUCT_CATEGORY ( 'detail', '', ( #92 ) ) ;
#230 = ORIENTED_EDGE ( 'NONE', *, *, #104, .F. ) ;
#231 = CARTESIAN_POINT ( 'NONE',  ( 1.326762908760390044E-14, 0.0000000000000000000, 3.799999999999998046 ) ) ;
#232 = AXIS2_PLACEMENT_3D ( 'NONE', #112, #114, #55 ) ;
#233 = ADVANCED_FACE ( 'NONE', ( #102, #86 ), #118, .T. ) ;
#234 = FACE_OUTER_BOUND ( 'NONE', #184, .T. ) ;
#235 = EDGE_CURVE ( 'NONE', #222, #222, #26, .T. ) ;
#236 = CARTESIAN_POINT ( 'NONE',  ( 1.326762908760390675E-13, -8.377713426430119900E-31, 38.00000000000000711 ) ) ;
#237 = DIRECTION ( 'NONE',  ( 3.491481338843133355E-15, -0.0000000000000000000, 1.000000000000000000 ) ) ;
#238 = ADVANCED_FACE ( 'NONE', ( #143 ), #25, .T. ) ;
#239 = CONICAL_SURFACE ( 'NONE', #125, 4.000000000000000000, 0.2617993877991428020 ) ;
#240 = PERSON_AND_ORGANIZATION ( #93, #210 ) ;
#241 = CARTESIAN_POINT ( 'NONE',  ( 1.326762908760390044E-14, 0.0000000000000000000, 3.799999999999998046 ) ) ;
#242 = DIRECTION ( 'NONE',  ( 1.000000000000000000, 0.0000000000000000000, 0.0000000000000000000 ) ) ;
#243 = ORIENTED_EDGE ( 'NONE', *, *, #18, .T. ) ;
ENDSEC;
END-ISO-10303-21;
