ISO-10303-21;
HEADER;
FILE_DESCRIPTION (( 'STEP AP203' ),
    '1' );
FILE_NAME ('334957.step',
    '2021-11-15T08:06:02',
    ( '' ),
    ( '' ),
    'SwSTEP 2.0',
    'SolidWorks 2019',
    '' );
FILE_SCHEMA (( 'CONFIG_CONTROL_DESIGN' ));
ENDSEC;

DATA;
#1 = CARTESIAN_POINT ( 'NONE',  ( 2.847360090968997854E-14, 0.0000000000000000000, 8.155163423879109530 ) ) ;
#2 = MANIFOLD_SOLID_BREP ( 'Corps-Déplacer/Copier1[2]', #224 ) ;
#3 = EDGE_LOOP ( 'NONE', ( #236 ) ) ;
#4 = AXIS2_PLACEMENT_3D ( 'NONE', #29, #99, #101 ) ;
#5 = DIRECTION ( 'NONE',  ( 4.275831445896958607E-31, 1.000000000000000000, 1.224646799147353207E-16 ) ) ;
#6 = APPROVAL ( #237, 'UNSPECIFIED' ) ;
#7 = DIRECTION ( 'NONE',  ( 3.491481338843133355E-15, -1.224646799147353207E-16, 1.000000000000000000 ) ) ;
#8 = AXIS2_PLACEMENT_3D ( 'NONE', #1, #153, #138 ) ;
#9 = MANIFOLD_SOLID_BREP ( 'Corps-Déplacer/Copier1[1]', #26 ) ;
#10 = VERTEX_POINT ( 'NONE', #145 ) ;
#11 = CIRCLE ( 'NONE', #207, 0.9181483474218596896 ) ;
#12 = PRODUCT ( '334957', '334957', '', ( #185 ) ) ;
#13 = AXIS2_PLACEMENT_3D ( 'NONE', #125, #182, #17 ) ;
#14 = CARTESIAN_POINT ( 'NONE',  ( 1.256933281983527692E-14, 0.0000000000000000000, 3.599999999999999201 ) ) ;
#15 = CARTESIAN_POINT ( 'NONE',  ( 2.000000000000028866, 0.0000000000000000000, 8.155163423879102425 ) ) ;
#16 = FACE_BOUND ( 'NONE', #79, .T. ) ;
#17 = DIRECTION ( 'NONE',  ( 0.0000000000000000000, 1.000000000000000000, 0.0000000000000000000 ) ) ;
#18 = PERSON_AND_ORGANIZATION ( #143, #238 ) ;
#19 = AXIS2_PLACEMENT_3D ( 'NONE', #155, #66, #30 ) ;
#20 = DATE_AND_TIME ( #240, #116 ) ;
#21 = PERSON_AND_ORGANIZATION ( #143, #238 ) ;
#22 = APPROVAL ( #132, 'UNSPECIFIED' ) ;
#23 = COORDINATED_UNIVERSAL_TIME_OFFSET ( 1, 0, .AHEAD. ) ;
#24 = COORDINATED_UNIVERSAL_TIME_OFFSET ( 1, 0, .AHEAD. ) ;
#25 = EDGE_LOOP ( 'NONE', ( #97 ) ) ;
#26 = CLOSED_SHELL ( 'NONE', ( #213, #122, #133, #174, #198, #77 ) ) ;
#27 = DIRECTION ( 'NONE',  ( 3.491481338843133355E-15, -0.0000000000000000000, 1.000000000000000000 ) ) ;
#28 = LOCAL_TIME ( 9, 6, 2.000000000000000000, #129 ) ;
#29 = CARTESIAN_POINT ( 'NONE',  ( 1.256933281983528008E-14, -7.806255641895630939E-16, 3.600000000000000089 ) ) ;
#30 = DIRECTION ( 'NONE',  ( 1.000000000000000000, 0.0000000000000000000, -3.571489509364016462E-15 ) ) ;
#31 = EDGE_CURVE ( 'NONE', #48, #48, #187, .T. ) ;
#32 = FACE_BOUND ( 'NONE', #154, .T. ) ;
#33 = AXIS2_PLACEMENT_3D ( 'NONE', #204, #27, #223 ) ;
#34 = VERTEX_POINT ( 'NONE', #15 ) ;
#35 = DIRECTION ( 'NONE',  ( 3.491481338843133355E-15, -0.0000000000000000000, 1.000000000000000000 ) ) ;
#36 = CC_DESIGN_PERSON_AND_ORGANIZATION_ASSIGNMENT ( #56, #110, ( #231 ) ) ;
#37 = ORIENTED_EDGE ( 'NONE', *, *, #242, .F. ) ;
#38 = APPROVAL_ROLE ( '' ) ;
#39 = DATE_AND_TIME ( #201, #28 ) ;
#40 = PRODUCT_RELATED_PRODUCT_CATEGORY ( 'detail', '', ( #12 ) ) ;
#41 = EDGE_LOOP ( 'NONE', ( #63 ) ) ;
#42 = LOCAL_TIME ( 9, 6, 2.000000000000000000, #92 ) ;
#43 = AXIS2_PLACEMENT_3D ( 'NONE', #47, #7, #120 ) ;
#44 =( GEOMETRIC_REPRESENTATION_CONTEXT ( 3 ) GLOBAL_UNCERTAINTY_ASSIGNED_CONTEXT ( ( #151 ) ) GLOBAL_UNIT_ASSIGNED_CONTEXT ( ( #105, #210, #103 ) ) REPRESENTATION_CONTEXT ( 'NONE', 'WORKASPACE' ) );
#45 = FACE_OUTER_BOUND ( 'NONE', #52, .T. ) ;
#46 = EDGE_CURVE ( 'NONE', #34, #34, #114, .T. ) ;
#47 = CARTESIAN_POINT ( 'NONE',  ( 1.256933281983528008E-14, -7.806255641895630939E-16, 3.600000000000000089 ) ) ;
#48 = VERTEX_POINT ( 'NONE', #85 ) ;
#49 = CYLINDRICAL_SURFACE ( 'NONE', #119, 0.8499999999999998668 ) ;
#50 = FACE_OUTER_BOUND ( 'NONE', #118, .T. ) ;
#51 = PRODUCT_DEFINITION ( 'UNKNOWN', '', #231, #58 ) ;
#52 = EDGE_LOOP ( 'NONE', ( #163 ) ) ;
#53 = EDGE_LOOP ( 'NONE', ( #146 ) ) ;
#54 = CALENDAR_DATE ( 2021, 15, 11 ) ;
#55 = AXIS2_PLACEMENT_3D ( 'NONE', #179, #144, #126 ) ;
#56 = PERSON_AND_ORGANIZATION ( #143, #238 ) ;
#57 = PERSON_AND_ORGANIZATION ( #143, #238 ) ;
#58 = DESIGN_CONTEXT ( 'detailed design', #102, 'design' ) ;
#59 = PERSON_AND_ORGANIZATION_ROLE ( 'design_supplier' ) ;
#60 = ORIENTED_EDGE ( 'NONE', *, *, #222, .F. ) ;
#61 = EDGE_LOOP ( 'NONE', ( #71 ) ) ;
#62 = ORIENTED_EDGE ( 'NONE', *, *, #86, .F. ) ;
#63 = ORIENTED_EDGE ( 'NONE', *, *, #222, .T. ) ;
#64 = APPROVAL_PERSON_ORGANIZATION ( #72, #164, #148 ) ;
#65 = CC_DESIGN_DATE_AND_TIME_ASSIGNMENT ( #39, #109, ( #128 ) ) ;
#66 = DIRECTION ( 'NONE',  ( 3.491481338843133355E-15, -0.0000000000000000000, 1.000000000000000000 ) ) ;
#67 = DIRECTION ( 'NONE',  ( -3.491481338843133355E-15, 1.224646799147353207E-16, -1.000000000000000000 ) ) ;
#68 = ORIENTED_EDGE ( 'NONE', *, *, #112, .T. ) ;
#69 = EDGE_CURVE ( 'NONE', #70, #70, #147, .T. ) ;
#70 = VERTEX_POINT ( 'NONE', #88 ) ;
#71 = ORIENTED_EDGE ( 'NONE', *, *, #112, .F. ) ;
#72 = PERSON_AND_ORGANIZATION ( #143, #238 ) ;
#73 = DIRECTION ( 'NONE',  ( 0.0000000000000000000, 0.0000000000000000000, 1.000000000000000000 ) ) ;
#74 = CIRCLE ( 'NONE', #13, 1.600000000000001865 ) ;
#75 = PERSON_AND_ORGANIZATION_ROLE ( 'classification_officer' ) ;
#76 = DATE_TIME_ROLE ( 'creation_date' ) ;
#77 = ADVANCED_FACE ( 'NONE', ( #135 ), #189, .F. ) ;
#78 = ORIENTED_EDGE ( 'NONE', *, *, #242, .T. ) ;
#79 = EDGE_LOOP ( 'NONE', ( #68 ) ) ;
#80 = CARTESIAN_POINT ( 'NONE',  ( 1.326762908760390675E-13, -8.377713426430119900E-31, 38.00000000000000711 ) ) ;
#81 = FACE_OUTER_BOUND ( 'NONE', #205, .T. ) ;
#82 = APPROVAL_PERSON_ORGANIZATION ( #57, #22, #113 ) ;
#83 = VERTEX_POINT ( 'NONE', #160 ) ;
#84 = CIRCLE ( 'NONE', #159, 0.8500000000000000888 ) ;
#85 = CARTESIAN_POINT ( 'NONE',  ( 1.312796983405018394E-13, 1.999999999999994893, 37.60000000000000853 ) ) ;
#86 = EDGE_CURVE ( 'NONE', #165, #165, #183, .T. ) ;
#87 = CARTESIAN_POINT ( 'NONE',  ( -1.710332578358783092E-30, 0.0000000000000000000, -4.898587196589412829E-16 ) ) ;
#88 = CARTESIAN_POINT ( 'NONE',  ( 0.8500000000000121902, 0.0000000000000000000, 3.599999999999995648 ) ) ;
#89 = CALENDAR_DATE ( 2021, 15, 11 ) ;
#90 = PERSON_AND_ORGANIZATION_ROLE ( 'design_owner' ) ;
#91 = LOCAL_TIME ( 9, 6, 2.000000000000000000, #149 ) ;
#92 = COORDINATED_UNIVERSAL_TIME_OFFSET ( 1, 0, .AHEAD. ) ;
#93 = CONICAL_SURFACE ( 'NONE', #55, 4.000000000000000000, 0.2617993877991427465 ) ;
#94 = PERSON_AND_ORGANIZATION ( #143, #238 ) ;
#95 = ADVANCED_BREP_SHAPE_REPRESENTATION ( '334957', ( #9, #2, #170 ), #44 ) ;
#96 = ADVANCED_FACE ( 'NONE', ( #45 ), #193, .T. ) ;
#97 = ORIENTED_EDGE ( 'NONE', *, *, #46, .T. ) ;
#98 = AXIS2_PLACEMENT_3D ( 'NONE', #140, #175, #5 ) ;
#99 = DIRECTION ( 'NONE',  ( 3.491481338843133355E-15, -1.224646799147353207E-16, 1.000000000000000000 ) ) ;
#100 = DIRECTION ( 'NONE',  ( -3.491481338843133355E-15, 1.224646799147353207E-16, -1.000000000000000000 ) ) ;
#101 = DIRECTION ( 'NONE',  ( -4.275831445896958607E-31, -1.000000000000000000, -1.224646799147353207E-16 ) ) ;
#102 = APPLICATION_CONTEXT ( 'configuration controlled 3d designs of mechanical parts and assemblies' ) ;
#103 =( NAMED_UNIT ( * ) SI_UNIT ( $, .STERADIAN. ) SOLID_ANGLE_UNIT ( ) );
#104 = AXIS2_PLACEMENT_3D ( 'NONE', #80, #67, #121 ) ;
#105 =( LENGTH_UNIT ( ) NAMED_UNIT ( * ) SI_UNIT ( .MILLI., .METRE. ) );
#106 = CC_DESIGN_PERSON_AND_ORGANIZATION_ASSIGNMENT ( #220, #75, ( #128 ) ) ;
#107 = CARTESIAN_POINT ( 'NONE',  ( 0.8500000000000121902, 0.0000000000000000000, 3.599999999999995648 ) ) ;
#108 = DIRECTION ( 'NONE',  ( -3.491481338843133355E-15, 1.224646799147353207E-16, -1.000000000000000000 ) ) ;
#109 = DATE_TIME_ROLE ( 'classification_date' ) ;
#110 = PERSON_AND_ORGANIZATION_ROLE ( 'creator' ) ;
#111 = CARTESIAN_POINT ( 'NONE',  ( 0.0000000000000000000, 0.0000000000000000000, 0.0000000000000000000 ) ) ;
#112 = EDGE_CURVE ( 'NONE', #10, #10, #11, .T. ) ;
#113 = APPROVAL_ROLE ( '' ) ;
#114 = CIRCLE ( 'NONE', #8, 2.000000000000000000 ) ;
#115 = EDGE_LOOP ( 'NONE', ( #62 ) ) ;
#116 = LOCAL_TIME ( 9, 6, 2.000000000000000000, #23 ) ;
#117 = ORIENTED_EDGE ( 'NONE', *, *, #86, .T. ) ;
#118 = EDGE_LOOP ( 'NONE', ( #173 ) ) ;
#119 = AXIS2_PLACEMENT_3D ( 'NONE', #194, #35, #158 ) ;
#120 = DIRECTION ( 'NONE',  ( -4.275831445896958607E-31, -1.000000000000000000, -1.224646799147353207E-16 ) ) ;
#121 = DIRECTION ( 'NONE',  ( 4.275831445896958607E-31, 1.000000000000000000, 1.224646799147353207E-16 ) ) ;
#122 = ADVANCED_FACE ( 'NONE', ( #32, #228 ), #200, .T. ) ;
#123 = FACE_OUTER_BOUND ( 'NONE', #215, .T. ) ;
#124 = CC_DESIGN_SECURITY_CLASSIFICATION ( #128, ( #231 ) ) ;
#125 = CARTESIAN_POINT ( 'NONE',  ( 1.326762908760390675E-13, -4.653657836759942730E-15, 38.00000000000000711 ) ) ;
#126 = DIRECTION ( 'NONE',  ( 1.000000000000000000, 0.0000000000000000000, -3.469446951953614189E-15 ) ) ;
#127 = CARTESIAN_POINT ( 'NONE',  ( 0.0000000000000000000, 0.0000000000000000000, 0.0000000000000000000 ) ) ;
#128 = SECURITY_CLASSIFICATION ( '', '', #131 ) ;
#129 = COORDINATED_UNIVERSAL_TIME_OFFSET ( 1, 0, .AHEAD. ) ;
#130 = TOROIDAL_SURFACE ( 'NONE', #232, 2.849999999999998757, 1.999999999999999112 ) ;
#131 = SECURITY_CLASSIFICATION_LEVEL ( 'unclassified' ) ;
#132 = APPROVAL_STATUS ( 'not_yet_approved' ) ;
#133 = ADVANCED_FACE ( 'NONE', ( #81 ), #156, .F. ) ;
#134 = DATE_AND_TIME ( #239, #42 ) ;
#135 = FACE_OUTER_BOUND ( 'NONE', #115, .T. ) ;
#136 = ORIENTED_EDGE ( 'NONE', *, *, #31, .T. ) ;
#137 = CC_DESIGN_APPROVAL ( #164, ( #231 ) ) ;
#138 = DIRECTION ( 'NONE',  ( 1.000000000000000000, 0.0000000000000000000, -3.469446951953614189E-15 ) ) ;
#139 = FACE_OUTER_BOUND ( 'NONE', #190, .T. ) ;
#140 = CARTESIAN_POINT ( 'NONE',  ( -4.275831445896957731E-31, 1.499759782661857608E-32, -1.224646799147353207E-16 ) ) ;
#141 = ADVANCED_FACE ( 'NONE', ( #139 ), #227, .T. ) ;
#142 = APPLICATION_CONTEXT ( 'configuration controlled 3d designs of mechanical parts and assemblies' ) ;
#143 = PERSON ( 'UNSPECIFIED', 'UNSPECIFIED', 'UNSPECIFIED', ('UNSPECIFIED'), ('UNSPECIFIED'), ('UNSPECIFIED') ) ;
#144 = DIRECTION ( 'NONE',  ( 3.491481338843133355E-15, -0.0000000000000000000, 1.000000000000000000 ) ) ;
#145 = CARTESIAN_POINT ( 'NONE',  ( 0.9181483474218741225, 0.0000000000000000000, 4.117638090205024248 ) ) ;
#146 = ORIENTED_EDGE ( 'NONE', *, *, #46, .F. ) ;
#147 = CIRCLE ( 'NONE', #33, 0.8499999999999996447 ) ;
#148 = APPROVAL_ROLE ( '' ) ;
#149 = COORDINATED_UNIVERSAL_TIME_OFFSET ( 1, 0, .AHEAD. ) ;
#150 = CC_DESIGN_DATE_AND_TIME_ASSIGNMENT ( #166, #76, ( #51 ) ) ;
#151 = UNCERTAINTY_MEASURE_WITH_UNIT (LENGTH_MEASURE( 1.000000000000000082E-05 ), #105, 'distance_accuracy_value', 'NONE');
#152 = APPLICATION_PROTOCOL_DEFINITION ( 'international standard', 'config_control_design', 1994, #142 ) ;
#153 = DIRECTION ( 'NONE',  ( 3.491481338843133355E-15, -0.0000000000000000000, 1.000000000000000000 ) ) ;
#154 = EDGE_LOOP ( 'NONE', ( #78 ) ) ;
#155 = CARTESIAN_POINT ( 'NONE',  ( 1.256933281983527535E-14, 0.0000000000000000000, 3.599999999999998757 ) ) ;
#156 = PLANE ( 'NONE',  #104 ) ;
#157 = CC_DESIGN_APPROVAL ( #22, ( #128 ) ) ;
#158 = DIRECTION ( 'NONE',  ( 1.000000000000000000, 0.0000000000000000000, -3.491481338843133355E-15 ) ) ;
#159 = AXIS2_PLACEMENT_3D ( 'NONE', #87, #178, #162 ) ;
#160 = CARTESIAN_POINT ( 'NONE',  ( 0.8500000000000000888, 0.0000000000000000000, -3.457617857675604733E-15 ) ) ;
#161 = FACE_OUTER_BOUND ( 'NONE', #53, .T. ) ;
#162 = DIRECTION ( 'NONE',  ( 1.000000000000000000, 0.0000000000000000000, -3.491481338843132961E-15 ) ) ;
#163 = ORIENTED_EDGE ( 'NONE', *, *, #69, .T. ) ;
#164 = APPROVAL ( #171, 'UNSPECIFIED' ) ;
#165 = VERTEX_POINT ( 'NONE', #107 ) ;
#166 = DATE_AND_TIME ( #89, #91 ) ;
#167 = PERSON_AND_ORGANIZATION_ROLE ( 'creator' ) ;
#168 = APPROVAL_PERSON_ORGANIZATION ( #18, #6, #38 ) ;
#169 = SHAPE_DEFINITION_REPRESENTATION ( #211, #95 ) ;
#170 = AXIS2_PLACEMENT_3D ( 'NONE', #111, #73, #184 ) ;
#171 = APPROVAL_STATUS ( 'not_yet_approved' ) ;
#172 = CARTESIAN_POINT ( 'NONE',  ( 1.312796983405018394E-13, -4.604671964794048513E-15, 37.60000000000000853 ) ) ;
#173 = ORIENTED_EDGE ( 'NONE', *, *, #69, .F. ) ;
#174 = ADVANCED_FACE ( 'NONE', ( #123, #234 ), #130, .F. ) ;
#175 = DIRECTION ( 'NONE',  ( -3.491481338843133355E-15, 1.224646799147353207E-16, -1.000000000000000000 ) ) ;
#176 = DIRECTION ( 'NONE',  ( 1.000000000000000000, 0.0000000000000000000, -3.778743338912218926E-15 ) ) ;
#177 = DIRECTION ( 'NONE',  ( 3.491481338843133355E-15, -0.0000000000000000000, 1.000000000000000000 ) ) ;
#178 = DIRECTION ( 'NONE',  ( 3.491481338843133355E-15, -0.0000000000000000000, 1.000000000000000000 ) ) ;
#179 = CARTESIAN_POINT ( 'NONE',  ( 5.453437241017304044E-14, 0.0000000000000000000, 15.61926503901706198 ) ) ;
#180 = FACE_OUTER_BOUND ( 'NONE', #206, .T. ) ;
#181 = CC_DESIGN_PERSON_AND_ORGANIZATION_ASSIGNMENT ( #243, #90, ( #12 ) ) ;
#182 = DIRECTION ( 'NONE',  ( -3.491481338843133355E-15, 1.224646799147353207E-16, -1.000000000000000000 ) ) ;
#183 = CIRCLE ( 'NONE', #19, 0.8499999999999996447 ) ;
#184 = DIRECTION ( 'NONE',  ( 1.000000000000000000, 0.0000000000000000000, 0.0000000000000000000 ) ) ;
#185 = MECHANICAL_CONTEXT ( 'NONE', #142, 'mechanical' ) ;
#186 = APPROVAL_DATE_TIME ( #241, #164 ) ;
#187 = CIRCLE ( 'NONE', #217, 1.999999999999999556 ) ;
#188 = DIRECTION ( 'NONE',  ( -3.491481338843133355E-15, 1.224646799147353207E-16, -1.000000000000000000 ) ) ;
#189 = PLANE ( 'NONE',  #4 ) ;
#190 = EDGE_LOOP ( 'NONE', ( #60 ) ) ;
#191 = CC_DESIGN_PERSON_AND_ORGANIZATION_ASSIGNMENT ( #21, #59, ( #231 ) ) ;
#192 = CARTESIAN_POINT ( 'NONE',  ( 1.312796983405018394E-13, -4.604671964794048513E-15, 37.60000000000000853 ) ) ;
#193 = PLANE ( 'NONE',  #43 ) ;
#194 = CARTESIAN_POINT ( 'NONE',  ( 0.0000000000000000000, 0.0000000000000000000, 0.0000000000000000000 ) ) ;
#195 = LOCAL_TIME ( 9, 6, 2.000000000000000000, #24 ) ;
#196 = AXIS2_PLACEMENT_3D ( 'NONE', #192, #100, #229 ) ;
#197 = DIRECTION ( 'NONE',  ( 1.000000000000000000, 0.0000000000000000000, -3.491481338843133355E-15 ) ) ;
#198 = ADVANCED_FACE ( 'NONE', ( #161, #16 ), #93, .T. ) ;
#199 = DIRECTION ( 'NONE',  ( 4.275831445896958607E-31, 1.000000000000000000, 1.224646799147353207E-16 ) ) ;
#200 = CONICAL_SURFACE ( 'NONE', #196, 1.999999999999999556, 0.7853981633974485010 ) ;
#201 = CALENDAR_DATE ( 2021, 15, 11 ) ;
#202 = APPROVAL_DATE_TIME ( #134, #22 ) ;
#203 = CC_DESIGN_PERSON_AND_ORGANIZATION_ASSIGNMENT ( #94, #167, ( #51 ) ) ;
#204 = CARTESIAN_POINT ( 'NONE',  ( 1.256933281983527535E-14, 0.0000000000000000000, 3.599999999999998757 ) ) ;
#205 = EDGE_LOOP ( 'NONE', ( #37 ) ) ;
#206 = EDGE_LOOP ( 'NONE', ( #136 ) ) ;
#207 = AXIS2_PLACEMENT_3D ( 'NONE', #208, #209, #176 ) ;
#208 = CARTESIAN_POINT ( 'NONE',  ( 1.437665655206053173E-14, 0.0000000000000000000, 4.117638090205026913 ) ) ;
#209 = DIRECTION ( 'NONE',  ( 3.491481338843133355E-15, -0.0000000000000000000, 1.000000000000000000 ) ) ;
#210 =( NAMED_UNIT ( * ) PLANE_ANGLE_UNIT ( ) SI_UNIT ( $, .RADIAN. ) );
#211 = PRODUCT_DEFINITION_SHAPE ( 'NONE', 'NONE',  #51 ) ;
#212 = CYLINDRICAL_SURFACE ( 'NONE', #219, 2.000000000000000000 ) ;
#213 = ADVANCED_FACE ( 'NONE', ( #180, #214 ), #212, .T. ) ;
#214 = FACE_OUTER_BOUND ( 'NONE', #25, .T. ) ;
#215 = EDGE_LOOP ( 'NONE', ( #117 ) ) ;
#216 = CARTESIAN_POINT ( 'NONE',  ( 1.326762908760390675E-13, 1.599999999999997202, 38.00000000000000711 ) ) ;
#217 = AXIS2_PLACEMENT_3D ( 'NONE', #172, #188, #225 ) ;
#218 = APPROVAL_DATE_TIME ( #20, #6 ) ;
#219 = AXIS2_PLACEMENT_3D ( 'NONE', #127, #108, #199 ) ;
#220 = PERSON_AND_ORGANIZATION ( #143, #238 ) ;
#221 = APPLICATION_PROTOCOL_DEFINITION ( 'international standard', 'config_control_design', 1994, #102 ) ;
#222 = EDGE_CURVE ( 'NONE', #83, #83, #84, .T. ) ;
#223 = DIRECTION ( 'NONE',  ( 1.000000000000000000, 0.0000000000000000000, -3.571489509364016462E-15 ) ) ;
#224 = CLOSED_SHELL ( 'NONE', ( #96, #230, #141 ) ) ;
#225 = DIRECTION ( 'NONE',  ( 0.0000000000000000000, 1.000000000000000000, 0.0000000000000000000 ) ) ;
#226 = CC_DESIGN_APPROVAL ( #6, ( #51 ) ) ;
#227 = PLANE ( 'NONE',  #98 ) ;
#228 = FACE_OUTER_BOUND ( 'NONE', #3, .T. ) ;
#229 = DIRECTION ( 'NONE',  ( 0.0000000000000000000, 1.000000000000000000, 0.0000000000000000000 ) ) ;
#230 = ADVANCED_FACE ( 'NONE', ( #235, #50 ), #49, .T. ) ;
#231 = PRODUCT_DEFINITION_FORMATION_WITH_SPECIFIED_SOURCE ( 'ANY', '', #12, .NOT_KNOWN. ) ;
#232 = AXIS2_PLACEMENT_3D ( 'NONE', #14, #177, #197 ) ;
#233 = VERTEX_POINT ( 'NONE', #216 ) ;
#234 = FACE_OUTER_BOUND ( 'NONE', #61, .T. ) ;
#235 = FACE_OUTER_BOUND ( 'NONE', #41, .T. ) ;
#236 = ORIENTED_EDGE ( 'NONE', *, *, #31, .F. ) ;
#237 = APPROVAL_STATUS ( 'not_yet_approved' ) ;
#238 = ORGANIZATION ( 'UNSPECIFIED', 'UNSPECIFIED', '' ) ;
#239 = CALENDAR_DATE ( 2021, 15, 11 ) ;
#240 = CALENDAR_DATE ( 2021, 15, 11 ) ;
#241 = DATE_AND_TIME ( #54, #195 ) ;
#242 = EDGE_CURVE ( 'NONE', #233, #233, #74, .T. ) ;
#243 = PERSON_AND_ORGANIZATION ( #143, #238 ) ;
ENDSEC;
END-ISO-10303-21;
