ISO-10303-21;
HEADER;
FILE_DESCRIPTION (( 'STEP AP203' ),
    '1' );
FILE_NAME ('334956.step',
    '2021-11-15T08:06:01',
    ( '' ),
    ( '' ),
    'SwSTEP 2.0',
    'SolidWorks 2019',
    '' );
FILE_SCHEMA (( 'CONFIG_CONTROL_DESIGN' ));
ENDSEC;

DATA;
#1 = CARTESIAN_POINT ( 'NONE',  ( 1.187103655206664710E-14, 0.0000000000000000000, 3.399999999999998135 ) ) ;
#2 = PRODUCT_RELATED_PRODUCT_CATEGORY ( 'detail', '', ( #243 ) ) ;
#3 = ORIENTED_EDGE ( 'NONE', *, *, #241, .T. ) ;
#4 = CONICAL_SURFACE ( 'NONE', #36, 1.999999999999999556, 0.7853981633974485010 ) ;
#5 = VERTEX_POINT ( 'NONE', #185 ) ;
#6 = CC_DESIGN_DATE_AND_TIME_ASSIGNMENT ( #160, #51, ( #77 ) ) ;
#7 = MANIFOLD_SOLID_BREP ( 'Corps-Déplacer/Copier1[1]', #117 ) ;
#8 = DIRECTION ( 'NONE',  ( -4.275831445896958607E-31, -1.000000000000000000, -1.224646799147353207E-16 ) ) ;
#9 = AXIS2_PLACEMENT_3D ( 'NONE', #87, #63, #205 ) ;
#10 = FACE_OUTER_BOUND ( 'NONE', #62, .T. ) ;
#11 = APPROVAL_DATE_TIME ( #73, #21 ) ;
#12 = CALENDAR_DATE ( 2021, 15, 11 ) ;
#13 = ORIENTED_EDGE ( 'NONE', *, *, #179, .F. ) ;
#14 = PLANE ( 'NONE',  #128 ) ;
#15 = ADVANCED_FACE ( 'NONE', ( #41, #166 ), #4, .T. ) ;
#16 = CALENDAR_DATE ( 2021, 15, 11 ) ;
#17 = APPROVAL_ROLE ( '' ) ;
#18 = ORIENTED_EDGE ( 'NONE', *, *, #35, .T. ) ;
#19 = FACE_BOUND ( 'NONE', #113, .T. ) ;
#20 = AXIS2_PLACEMENT_3D ( 'NONE', #82, #144, #220 ) ;
#21 = APPROVAL ( #119, 'UNSPECIFIED' ) ;
#22 = DIRECTION ( 'NONE',  ( 3.491481338843133355E-15, -1.224646799147353207E-16, 1.000000000000000000 ) ) ;
#23 = PERSON ( 'UNSPECIFIED', 'UNSPECIFIED', 'UNSPECIFIED', ('UNSPECIFIED'), ('UNSPECIFIED'), ('UNSPECIFIED') ) ;
#24 = APPROVAL_STATUS ( 'not_yet_approved' ) ;
#25 = PRODUCT_DEFINITION_FORMATION_WITH_SPECIFIED_SOURCE ( 'ANY', '', #243, .NOT_KNOWN. ) ;
#26 = VERTEX_POINT ( 'NONE', #208 ) ;
#27 = CARTESIAN_POINT ( 'NONE',  ( 0.8000000000000113687, 0.0000000000000000000, 3.399999999999995470 ) ) ;
#28 = APPROVAL_STATUS ( 'not_yet_approved' ) ;
#29 = EDGE_LOOP ( 'NONE', ( #112 ) ) ;
#30 = AXIS2_PLACEMENT_3D ( 'NONE', #45, #101, #186 ) ;
#31 = FACE_OUTER_BOUND ( 'NONE', #195, .T. ) ;
#32 = ORIENTED_EDGE ( 'NONE', *, *, #95, .F. ) ;
#33 = FACE_OUTER_BOUND ( 'NONE', #161, .T. ) ;
#34 = CC_DESIGN_APPROVAL ( #46, ( #129 ) ) ;
#35 = EDGE_CURVE ( 'NONE', #209, #209, #149, .T. ) ;
#36 = AXIS2_PLACEMENT_3D ( 'NONE', #150, #229, #65 ) ;
#37 = SHAPE_DEFINITION_REPRESENTATION ( #232, #203 ) ;
#38 = CC_DESIGN_APPROVAL ( #21, ( #77 ) ) ;
#39 = EDGE_CURVE ( 'NONE', #5, #5, #221, .T. ) ;
#40 = DIRECTION ( 'NONE',  ( 1.000000000000000000, 0.0000000000000000000, -3.469446951953614189E-15 ) ) ;
#41 = FACE_BOUND ( 'NONE', #239, .T. ) ;
#42 = AXIS2_PLACEMENT_3D ( 'NONE', #182, #151, #43 ) ;
#43 = DIRECTION ( 'NONE',  ( 1.000000000000000000, 0.0000000000000000000, -2.997281768366690061E-15 ) ) ;
#44 =( GEOMETRIC_REPRESENTATION_CONTEXT ( 3 ) GLOBAL_UNCERTAINTY_ASSIGNED_CONTEXT ( ( #170 ) ) GLOBAL_UNIT_ASSIGNED_CONTEXT ( ( #171, #121, #102 ) ) REPRESENTATION_CONTEXT ( 'NONE', 'WORKASPACE' ) );
#45 = CARTESIAN_POINT ( 'NONE',  ( 0.0000000000000000000, 0.0000000000000000000, 0.0000000000000000000 ) ) ;
#46 = APPROVAL ( #28, 'UNSPECIFIED' ) ;
#47 = CARTESIAN_POINT ( 'NONE',  ( 1.326762908760390675E-13, -8.377713426430119900E-31, 38.00000000000000711 ) ) ;
#48 = VERTEX_POINT ( 'NONE', #80 ) ;
#49 = DIRECTION ( 'NONE',  ( 3.491481338843133355E-15, -0.0000000000000000000, 1.000000000000000000 ) ) ;
#50 = AXIS2_PLACEMENT_3D ( 'NONE', #142, #218, #163 ) ;
#51 = DATE_TIME_ROLE ( 'creation_date' ) ;
#52 = DIRECTION ( 'NONE',  ( 3.491481338843133355E-15, -1.224646799147353207E-16, 1.000000000000000000 ) ) ;
#53 = CC_DESIGN_PERSON_AND_ORGANIZATION_ASSIGNMENT ( #130, #162, ( #77 ) ) ;
#54 = DATE_AND_TIME ( #132, #111 ) ;
#55 = CARTESIAN_POINT ( 'NONE',  ( 0.0000000000000000000, 0.0000000000000000000, 0.0000000000000000000 ) ) ;
#56 = PERSON_AND_ORGANIZATION ( #23, #223 ) ;
#57 = FACE_OUTER_BOUND ( 'NONE', #143, .T. ) ;
#58 = FACE_OUTER_BOUND ( 'NONE', #148, .T. ) ;
#59 = EDGE_LOOP ( 'NONE', ( #68 ) ) ;
#60 = VERTEX_POINT ( 'NONE', #198 ) ;
#61 = CARTESIAN_POINT ( 'NONE',  ( 5.448759542991647123E-14, 0.0000000000000000000, 15.60586757939550573 ) ) ;
#62 = EDGE_LOOP ( 'NONE', ( #13 ) ) ;
#63 = DIRECTION ( 'NONE',  ( 3.491481338843133355E-15, -0.0000000000000000000, 1.000000000000000000 ) ) ;
#64 = ORIENTED_EDGE ( 'NONE', *, *, #179, .T. ) ;
#65 = DIRECTION ( 'NONE',  ( 0.0000000000000000000, 1.000000000000000000, 0.0000000000000000000 ) ) ;
#66 = CARTESIAN_POINT ( 'NONE',  ( 1.187103655206665183E-14, -7.372574772901429165E-16, 3.399999999999999467 ) ) ;
#67 = CC_DESIGN_SECURITY_CLASSIFICATION ( #129, ( #25 ) ) ;
#68 = ORIENTED_EDGE ( 'NONE', *, *, #71, .T. ) ;
#69 = TOROIDAL_SURFACE ( 'NONE', #98, 2.799999999999999822, 2.000000000000000444 ) ;
#70 = PERSON_AND_ORGANIZATION_ROLE ( 'design_supplier' ) ;
#71 = EDGE_CURVE ( 'NONE', #72, #72, #169, .T. ) ;
#72 = VERTEX_POINT ( 'NONE', #27 ) ;
#73 = DATE_AND_TIME ( #189, #86 ) ;
#74 = FACE_OUTER_BOUND ( 'NONE', #29, .T. ) ;
#75 = DIRECTION ( 'NONE',  ( 4.275831445896958607E-31, 1.000000000000000000, 1.224646799147353207E-16 ) ) ;
#76 = PERSON_AND_ORGANIZATION_ROLE ( 'creator' ) ;
#77 = PRODUCT_DEFINITION ( 'UNKNOWN', '', #25, #89 ) ;
#78 = AXIS2_PLACEMENT_3D ( 'NONE', #242, #108, #124 ) ;
#79 = AXIS2_PLACEMENT_3D ( 'NONE', #174, #236, #93 ) ;
#80 = CARTESIAN_POINT ( 'NONE',  ( 0.8681483474218731899, 0.0000000000000000000, 3.917638090205024071 ) ) ;
#81 = PERSON_AND_ORGANIZATION_ROLE ( 'design_owner' ) ;
#82 = CARTESIAN_POINT ( 'NONE',  ( 0.0000000000000000000, 0.0000000000000000000, 0.0000000000000000000 ) ) ;
#83 = CIRCLE ( 'NONE', #50, 0.7999999999999999334 ) ;
#84 = VERTEX_POINT ( 'NONE', #145 ) ;
#85 = CC_DESIGN_DATE_AND_TIME_ASSIGNMENT ( #120, #216, ( #129 ) ) ;
#86 = LOCAL_TIME ( 9, 6, 1.000000000000000000, #94 ) ;
#87 = CARTESIAN_POINT ( 'NONE',  ( 1.187103655206664710E-14, 0.0000000000000000000, 3.399999999999998135 ) ) ;
#88 = AXIS2_PLACEMENT_3D ( 'NONE', #61, #153, #40 ) ;
#89 = DESIGN_CONTEXT ( 'detailed design', #180, 'design' ) ;
#90 = FACE_OUTER_BOUND ( 'NONE', #127, .T. ) ;
#91 = COORDINATED_UNIVERSAL_TIME_OFFSET ( 1, 0, .AHEAD. ) ;
#92 = MANIFOLD_SOLID_BREP ( 'Corps-Déplacer/Copier1[2]', #115 ) ;
#93 = DIRECTION ( 'NONE',  ( 1.000000000000000000, 0.0000000000000000000, -3.469446951953614189E-15 ) ) ;
#94 = COORDINATED_UNIVERSAL_TIME_OFFSET ( 1, 0, .AHEAD. ) ;
#95 = EDGE_CURVE ( 'NONE', #84, #84, #83, .T. ) ;
#96 = ADVANCED_FACE ( 'NONE', ( #57, #123 ), #172, .T. ) ;
#97 = COORDINATED_UNIVERSAL_TIME_OFFSET ( 1, 0, .AHEAD. ) ;
#98 = AXIS2_PLACEMENT_3D ( 'NONE', #133, #49, #226 ) ;
#99 = DATE_AND_TIME ( #16, #139 ) ;
#100 = ADVANCED_FACE ( 'NONE', ( #58, #74 ), #69, .F. ) ;
#101 = DIRECTION ( 'NONE',  ( 0.0000000000000000000, 0.0000000000000000000, 1.000000000000000000 ) ) ;
#102 =( NAMED_UNIT ( * ) SI_UNIT ( $, .STERADIAN. ) SOLID_ANGLE_UNIT ( ) );
#103 = DIRECTION ( 'NONE',  ( -3.491481338843133355E-15, 1.224646799147353207E-16, -1.000000000000000000 ) ) ;
#104 = DIRECTION ( 'NONE',  ( -3.491481338843133355E-15, 1.224646799147353207E-16, -1.000000000000000000 ) ) ;
#105 = PLANE ( 'NONE',  #158 ) ;
#106 = MECHANICAL_CONTEXT ( 'NONE', #183, 'mechanical' ) ;
#107 = EDGE_LOOP ( 'NONE', ( #196 ) ) ;
#108 = DIRECTION ( 'NONE',  ( -3.491481338843133355E-15, 1.224646799147353207E-16, -1.000000000000000000 ) ) ;
#109 = ORIENTED_EDGE ( 'NONE', *, *, #39, .F. ) ;
#110 = AXIS2_PLACEMENT_3D ( 'NONE', #214, #52, #191 ) ;
#111 = LOCAL_TIME ( 9, 6, 1.000000000000000000, #91 ) ;
#112 = ORIENTED_EDGE ( 'NONE', *, *, #241, .F. ) ;
#113 = EDGE_LOOP ( 'NONE', ( #3 ) ) ;
#114 = DIRECTION ( 'NONE',  ( 4.275831445896958607E-31, 1.000000000000000000, 1.224646799147353207E-16 ) ) ;
#115 = CLOSED_SHELL ( 'NONE', ( #201, #96, #212 ) ) ;
#116 = FACE_OUTER_BOUND ( 'NONE', #199, .T. ) ;
#117 = CLOSED_SHELL ( 'NONE', ( #231, #15, #155, #100, #140, #225 ) ) ;
#118 = CARTESIAN_POINT ( 'NONE',  ( 0.8000000000000113687, 0.0000000000000000000, 3.399999999999995470 ) ) ;
#119 = APPROVAL_STATUS ( 'not_yet_approved' ) ;
#120 = DATE_AND_TIME ( #12, #146 ) ;
#121 =( NAMED_UNIT ( * ) PLANE_ANGLE_UNIT ( ) SI_UNIT ( $, .RADIAN. ) );
#122 = APPROVAL_DATE_TIME ( #54, #240 ) ;
#123 = FACE_OUTER_BOUND ( 'NONE', #107, .T. ) ;
#124 = DIRECTION ( 'NONE',  ( 0.0000000000000000000, 1.000000000000000000, 0.0000000000000000000 ) ) ;
#125 = DIRECTION ( 'NONE',  ( 3.491481338843133355E-15, -0.0000000000000000000, 1.000000000000000000 ) ) ;
#126 = DIRECTION ( 'NONE',  ( 1.000000000000000000, 0.0000000000000000000, -3.252606517456515274E-15 ) ) ;
#127 = EDGE_LOOP ( 'NONE', ( #219 ) ) ;
#128 = AXIS2_PLACEMENT_3D ( 'NONE', #204, #197, #114 ) ;
#129 = SECURITY_CLASSIFICATION ( '', '', #235 ) ;
#130 = PERSON_AND_ORGANIZATION ( #23, #223 ) ;
#131 = FACE_OUTER_BOUND ( 'NONE', #200, .T. ) ;
#132 = CALENDAR_DATE ( 2021, 15, 11 ) ;
#133 = CARTESIAN_POINT ( 'NONE',  ( 1.187103655206664867E-14, 0.0000000000000000000, 3.399999999999998579 ) ) ;
#134 = CC_DESIGN_PERSON_AND_ORGANIZATION_ASSIGNMENT ( #173, #76, ( #25 ) ) ;
#135 = PERSON_AND_ORGANIZATION_ROLE ( 'classification_officer' ) ;
#136 = CIRCLE ( 'NONE', #78, 1.999999999999999556 ) ;
#137 = PLANE ( 'NONE',  #110 ) ;
#138 = PERSON_AND_ORGANIZATION ( #23, #223 ) ;
#139 = LOCAL_TIME ( 9, 6, 1.000000000000000000, #97 ) ;
#140 = ADVANCED_FACE ( 'NONE', ( #10, #19 ), #168, .T. ) ;
#141 = PERSON_AND_ORGANIZATION ( #23, #223 ) ;
#142 = CARTESIAN_POINT ( 'NONE',  ( -1.710332578358783092E-30, 0.0000000000000000000, -4.898587196589412829E-16 ) ) ;
#143 = EDGE_LOOP ( 'NONE', ( #222 ) ) ;
#144 = DIRECTION ( 'NONE',  ( 3.491481338843133355E-15, -0.0000000000000000000, 1.000000000000000000 ) ) ;
#145 = CARTESIAN_POINT ( 'NONE',  ( 0.7999999999999999334, 0.0000000000000000000, -3.283043790733448066E-15 ) ) ;
#146 = LOCAL_TIME ( 9, 6, 1.000000000000000000, #213 ) ;
#147 = ORIENTED_EDGE ( 'NONE', *, *, #35, .F. ) ;
#148 = EDGE_LOOP ( 'NONE', ( #18 ) ) ;
#149 = CIRCLE ( 'NONE', #194, 0.7999999999999994893 ) ;
#150 = CARTESIAN_POINT ( 'NONE',  ( 1.312796983405018394E-13, -4.604671964794048513E-15, 37.60000000000000853 ) ) ;
#151 = DIRECTION ( 'NONE',  ( 3.491481338843133355E-15, -0.0000000000000000000, 1.000000000000000000 ) ) ;
#152 = CC_DESIGN_APPROVAL ( #240, ( #25 ) ) ;
#153 = DIRECTION ( 'NONE',  ( 3.491481338843133355E-15, -0.0000000000000000000, 1.000000000000000000 ) ) ;
#154 = APPLICATION_PROTOCOL_DEFINITION ( 'international standard', 'config_control_design', 1994, #180 ) ;
#155 = ADVANCED_FACE ( 'NONE', ( #116 ), #105, .F. ) ;
#156 = PERSON_AND_ORGANIZATION ( #23, #223 ) ;
#157 = FACE_OUTER_BOUND ( 'NONE', #59, .T. ) ;
#158 = AXIS2_PLACEMENT_3D ( 'NONE', #47, #103, #75 ) ;
#159 = CC_DESIGN_PERSON_AND_ORGANIZATION_ASSIGNMENT ( #156, #70, ( #25 ) ) ;
#160 = DATE_AND_TIME ( #192, #167 ) ;
#161 = EDGE_LOOP ( 'NONE', ( #32 ) ) ;
#162 = PERSON_AND_ORGANIZATION_ROLE ( 'creator' ) ;
#163 = DIRECTION ( 'NONE',  ( 1.000000000000000000, 0.0000000000000000000, -3.491481338843133750E-15 ) ) ;
#164 = APPROVAL_PERSON_ORGANIZATION ( #138, #240, #175 ) ;
#165 = APPROVAL_DATE_TIME ( #99, #46 ) ;
#166 = FACE_OUTER_BOUND ( 'NONE', #176, .T. ) ;
#167 = LOCAL_TIME ( 9, 6, 1.000000000000000000, #187 ) ;
#168 = CONICAL_SURFACE ( 'NONE', #88, 4.000000000000000000, 0.2617993877991428575 ) ;
#169 = CIRCLE ( 'NONE', #9, 0.7999999999999994893 ) ;
#170 = UNCERTAINTY_MEASURE_WITH_UNIT (LENGTH_MEASURE( 1.000000000000000082E-05 ), #171, 'distance_accuracy_value', 'NONE');
#171 =( LENGTH_UNIT ( ) NAMED_UNIT ( * ) SI_UNIT ( .MILLI., .METRE. ) );
#172 = CYLINDRICAL_SURFACE ( 'NONE', #20, 0.7999999999999997113 ) ;
#173 = PERSON_AND_ORGANIZATION ( #23, #223 ) ;
#174 = CARTESIAN_POINT ( 'NONE',  ( 2.842682392943342194E-14, 0.0000000000000000000, 8.141765964257555055 ) ) ;
#175 = APPROVAL_ROLE ( '' ) ;
#176 = EDGE_LOOP ( 'NONE', ( #224 ) ) ;
#177 = CARTESIAN_POINT ( 'NONE',  ( 1.326762908760390675E-13, -4.653657836759942730E-15, 38.00000000000000711 ) ) ;
#178 = CIRCLE ( 'NONE', #79, 2.000000000000000000 ) ;
#179 = EDGE_CURVE ( 'NONE', #60, #60, #178, .T. ) ;
#180 = APPLICATION_CONTEXT ( 'configuration controlled 3d designs of mechanical parts and assemblies' ) ;
#181 = DIRECTION ( 'NONE',  ( 4.275831445896958607E-31, 1.000000000000000000, 1.224646799147353207E-16 ) ) ;
#182 = CARTESIAN_POINT ( 'NONE',  ( 1.367836028429190348E-14, 0.0000000000000000000, 3.917638090205026735 ) ) ;
#183 = APPLICATION_CONTEXT ( 'configuration controlled 3d designs of mechanical parts and assemblies' ) ;
#184 = AXIS2_PLACEMENT_3D ( 'NONE', #66, #22, #8 ) ;
#185 = CARTESIAN_POINT ( 'NONE',  ( 1.326762908760390675E-13, 1.599999999999997202, 38.00000000000000711 ) ) ;
#186 = DIRECTION ( 'NONE',  ( 1.000000000000000000, 0.0000000000000000000, 0.0000000000000000000 ) ) ;
#187 = COORDINATED_UNIVERSAL_TIME_OFFSET ( 1, 0, .AHEAD. ) ;
#188 = CC_DESIGN_PERSON_AND_ORGANIZATION_ASSIGNMENT ( #56, #81, ( #243 ) ) ;
#189 = CALENDAR_DATE ( 2021, 15, 11 ) ;
#190 = APPROVAL_PERSON_ORGANIZATION ( #217, #46, #17 ) ;
#191 = DIRECTION ( 'NONE',  ( -4.275831445896958607E-31, -1.000000000000000000, -1.224646799147353207E-16 ) ) ;
#192 = CALENDAR_DATE ( 2021, 15, 11 ) ;
#193 = DIRECTION ( 'NONE',  ( 0.0000000000000000000, 1.000000000000000000, 0.0000000000000000000 ) ) ;
#194 = AXIS2_PLACEMENT_3D ( 'NONE', #1, #125, #126 ) ;
#195 = EDGE_LOOP ( 'NONE', ( #147 ) ) ;
#196 = ORIENTED_EDGE ( 'NONE', *, *, #71, .F. ) ;
#197 = DIRECTION ( 'NONE',  ( -3.491481338843133355E-15, 1.224646799147353207E-16, -1.000000000000000000 ) ) ;
#198 = CARTESIAN_POINT ( 'NONE',  ( 2.000000000000028866, 0.0000000000000000000, 8.141765964257547950 ) ) ;
#199 = EDGE_LOOP ( 'NONE', ( #109 ) ) ;
#200 = EDGE_LOOP ( 'NONE', ( #64 ) ) ;
#201 = ADVANCED_FACE ( 'NONE', ( #157 ), #137, .T. ) ;
#202 = ORIENTED_EDGE ( 'NONE', *, *, #39, .T. ) ;
#203 = ADVANCED_BREP_SHAPE_REPRESENTATION ( '334956', ( #7, #92, #30 ), #44 ) ;
#204 = CARTESIAN_POINT ( 'NONE',  ( -4.275831445896957731E-31, 1.499759782661857608E-32, -1.224646799147353207E-16 ) ) ;
#205 = DIRECTION ( 'NONE',  ( 1.000000000000000000, 0.0000000000000000000, -3.252606517456515274E-15 ) ) ;
#206 = AXIS2_PLACEMENT_3D ( 'NONE', #55, #104, #181 ) ;
#207 = EDGE_CURVE ( 'NONE', #26, #26, #136, .T. ) ;
#208 = CARTESIAN_POINT ( 'NONE',  ( 1.312796983405018394E-13, 1.999999999999994893, 37.60000000000000853 ) ) ;
#209 = VERTEX_POINT ( 'NONE', #118 ) ;
#210 = CYLINDRICAL_SURFACE ( 'NONE', #206, 2.000000000000000000 ) ;
#211 = PERSON_AND_ORGANIZATION ( #23, #223 ) ;
#212 = ADVANCED_FACE ( 'NONE', ( #33 ), #14, .T. ) ;
#213 = COORDINATED_UNIVERSAL_TIME_OFFSET ( 1, 0, .AHEAD. ) ;
#214 = CARTESIAN_POINT ( 'NONE',  ( 1.187103655206665183E-14, -7.372574772901429165E-16, 3.399999999999999467 ) ) ;
#215 = APPROVAL_PERSON_ORGANIZATION ( #211, #21, #234 ) ;
#216 = DATE_TIME_ROLE ( 'classification_date' ) ;
#217 = PERSON_AND_ORGANIZATION ( #23, #223 ) ;
#218 = DIRECTION ( 'NONE',  ( 3.491481338843133355E-15, -0.0000000000000000000, 1.000000000000000000 ) ) ;
#219 = ORIENTED_EDGE ( 'NONE', *, *, #207, .T. ) ;
#220 = DIRECTION ( 'NONE',  ( 1.000000000000000000, 0.0000000000000000000, -3.491481338843133750E-15 ) ) ;
#221 = CIRCLE ( 'NONE', #237, 1.600000000000001865 ) ;
#222 = ORIENTED_EDGE ( 'NONE', *, *, #95, .T. ) ;
#223 = ORGANIZATION ( 'UNSPECIFIED', 'UNSPECIFIED', '' ) ;
#224 = ORIENTED_EDGE ( 'NONE', *, *, #207, .F. ) ;
#225 = ADVANCED_FACE ( 'NONE', ( #31 ), #230, .F. ) ;
#226 = DIRECTION ( 'NONE',  ( 1.000000000000000000, 0.0000000000000000000, -3.491481338843133355E-15 ) ) ;
#227 = DIRECTION ( 'NONE',  ( -3.491481338843133355E-15, 1.224646799147353207E-16, -1.000000000000000000 ) ) ;
#228 = CIRCLE ( 'NONE', #42, 0.8681483474218595342 ) ;
#229 = DIRECTION ( 'NONE',  ( -3.491481338843133355E-15, 1.224646799147353207E-16, -1.000000000000000000 ) ) ;
#230 = PLANE ( 'NONE',  #184 ) ;
#231 = ADVANCED_FACE ( 'NONE', ( #90, #131 ), #210, .T. ) ;
#232 = PRODUCT_DEFINITION_SHAPE ( 'NONE', 'NONE',  #77 ) ;
#233 = CC_DESIGN_PERSON_AND_ORGANIZATION_ASSIGNMENT ( #141, #135, ( #129 ) ) ;
#234 = APPROVAL_ROLE ( '' ) ;
#235 = SECURITY_CLASSIFICATION_LEVEL ( 'unclassified' ) ;
#236 = DIRECTION ( 'NONE',  ( 3.491481338843133355E-15, -0.0000000000000000000, 1.000000000000000000 ) ) ;
#237 = AXIS2_PLACEMENT_3D ( 'NONE', #177, #227, #193 ) ;
#238 = APPLICATION_PROTOCOL_DEFINITION ( 'international standard', 'config_control_design', 1994, #183 ) ;
#239 = EDGE_LOOP ( 'NONE', ( #202 ) ) ;
#240 = APPROVAL ( #24, 'UNSPECIFIED' ) ;
#241 = EDGE_CURVE ( 'NONE', #48, #48, #228, .T. ) ;
#242 = CARTESIAN_POINT ( 'NONE',  ( 1.312796983405018394E-13, -4.604671964794048513E-15, 37.60000000000000853 ) ) ;
#243 = PRODUCT ( '334956', '334956', '', ( #106 ) ) ;
ENDSEC;
END-ISO-10303-21;
