ISO-10303-21;
HEADER;
FILE_DESCRIPTION (( 'STEP AP203' ),
    '1' );
FILE_NAME ('334955.step',
    '2021-11-15T08:06:00',
    ( '' ),
    ( '' ),
    'SwSTEP 2.0',
    'SolidWorks 2019',
    '' );
FILE_SCHEMA (( 'CONFIG_CONTROL_DESIGN' ));
ENDSEC;

DATA;
#1 = CONICAL_SURFACE ( 'NONE', #116, 1.999999999999999556, 0.7853981633974485010 ) ;
#2 = DIRECTION ( 'NONE',  ( -4.275831445896958607E-31, -1.000000000000000000, -1.224646799147353207E-16 ) ) ;
#3 = DATE_AND_TIME ( #136, #155 ) ;
#4 = FACE_BOUND ( 'NONE', #91, .T. ) ;
#5 = TOROIDAL_SURFACE ( 'NONE', #49, 2.750000000000000444, 2.000000000000000444 ) ;
#6 = APPROVAL ( #112, 'UNSPECIFIED' ) ;
#7 = PERSON_AND_ORGANIZATION ( #237, #100 ) ;
#8 = DIRECTION ( 'NONE',  ( 1.000000000000000000, 0.0000000000000000000, -3.491481338843132961E-15 ) ) ;
#9 = DIRECTION ( 'NONE',  ( 3.491481338843133355E-15, -0.0000000000000000000, 1.000000000000000000 ) ) ;
#10 = CC_DESIGN_APPROVAL ( #183, ( #210 ) ) ;
#11 = DIRECTION ( 'NONE',  ( 1.000000000000000000, 0.0000000000000000000, 0.0000000000000000000 ) ) ;
#12 = AXIS2_PLACEMENT_3D ( 'NONE', #102, #9, #172 ) ;
#13 = DIRECTION ( 'NONE',  ( -3.491481338843133355E-15, 1.224646799147353207E-16, -1.000000000000000000 ) ) ;
#14 = CARTESIAN_POINT ( 'NONE',  ( 1.117274028429802674E-14, -6.938893903907227392E-16, 3.199999999999999734 ) ) ;
#15 = DIRECTION ( 'NONE',  ( -3.491481338843133355E-15, 1.224646799147353207E-16, -1.000000000000000000 ) ) ;
#16 = CIRCLE ( 'NONE', #85, 0.7499999999999993339 ) ;
#17 = DIRECTION ( 'NONE',  ( 3.491481338843133355E-15, -0.0000000000000000000, 1.000000000000000000 ) ) ;
#18 = PRODUCT ( '334955', '334955', '', ( #166 ) ) ;
#19 = ADVANCED_FACE ( 'NONE', ( #37 ), #167, .F. ) ;
#20 = DIRECTION ( 'NONE',  ( 4.275831445896958607E-31, 1.000000000000000000, 1.224646799147353207E-16 ) ) ;
#21 = CC_DESIGN_APPROVAL ( #6, ( #95 ) ) ;
#22 = CC_DESIGN_DATE_AND_TIME_ASSIGNMENT ( #78, #154, ( #33 ) ) ;
#23 = APPROVAL_PERSON_ORGANIZATION ( #7, #168, #81 ) ;
#24 = COORDINATED_UNIVERSAL_TIME_OFFSET ( 1, 0, .AHEAD. ) ;
#25 = DIRECTION ( 'NONE',  ( -4.275831445896958607E-31, -1.000000000000000000, -1.224646799147353207E-16 ) ) ;
#26 = AXIS2_PLACEMENT_3D ( 'NONE', #146, #123, #162 ) ;
#27 = CARTESIAN_POINT ( 'NONE',  ( 0.7500000000000105471, 0.0000000000000000000, 3.199999999999995737 ) ) ;
#28 = DIRECTION ( 'NONE',  ( 3.491481338843133355E-15, -0.0000000000000000000, 1.000000000000000000 ) ) ;
#29 = DESIGN_CONTEXT ( 'detailed design', #67, 'design' ) ;
#30 = AXIS2_PLACEMENT_3D ( 'NONE', #219, #48, #66 ) ;
#31 = EDGE_LOOP ( 'NONE', ( #227 ) ) ;
#32 = ORIENTED_EDGE ( 'NONE', *, *, #63, .T. ) ;
#33 = PRODUCT_DEFINITION ( 'UNKNOWN', '', #95, #29 ) ;
#34 = PERSON_AND_ORGANIZATION ( #237, #100 ) ;
#35 = CALENDAR_DATE ( 2021, 15, 11 ) ;
#36 = FACE_OUTER_BOUND ( 'NONE', #182, .T. ) ;
#37 = FACE_OUTER_BOUND ( 'NONE', #145, .T. ) ;
#38 = COORDINATED_UNIVERSAL_TIME_OFFSET ( 1, 0, .AHEAD. ) ;
#39 = CIRCLE ( 'NONE', #30, 1.600000000000001865 ) ;
#40 = CYLINDRICAL_SURFACE ( 'NONE', #107, 2.000000000000000000 ) ;
#41 = VERTEX_POINT ( 'NONE', #173 ) ;
#42 = PLANE ( 'NONE',  #192 ) ;
#43 = AXIS2_PLACEMENT_3D ( 'NONE', #161, #104, #191 ) ;
#44 = DIRECTION ( 'NONE',  ( 3.491481338843133355E-15, -1.224646799147353207E-16, 1.000000000000000000 ) ) ;
#45 = ADVANCED_FACE ( 'NONE', ( #133, #4 ), #222, .T. ) ;
#46 = FACE_OUTER_BOUND ( 'NONE', #90, .T. ) ;
#47 = DIRECTION ( 'NONE',  ( 3.491481338843133355E-15, -0.0000000000000000000, 1.000000000000000000 ) ) ;
#48 = DIRECTION ( 'NONE',  ( -3.491481338843133355E-15, 1.224646799147353207E-16, -1.000000000000000000 ) ) ;
#49 = AXIS2_PLACEMENT_3D ( 'NONE', #117, #17, #8 ) ;
#50 = ORIENTED_EDGE ( 'NONE', *, *, #69, .F. ) ;
#51 = APPLICATION_CONTEXT ( 'configuration controlled 3d designs of mechanical parts and assemblies' ) ;
#52 = EDGE_LOOP ( 'NONE', ( #243 ) ) ;
#53 = DIRECTION ( 'NONE',  ( -3.491481338843133355E-15, 1.224646799147353207E-16, -1.000000000000000000 ) ) ;
#54 = DIRECTION ( 'NONE',  ( -3.491481338843133355E-15, 1.224646799147353207E-16, -1.000000000000000000 ) ) ;
#55 = LOCAL_TIME ( 9, 6, 0.0000000000000000000, #24 ) ;
#56 = DIRECTION ( 'NONE',  ( 3.491481338843133355E-15, -1.224646799147353207E-16, 1.000000000000000000 ) ) ;
#57 = APPROVAL_DATE_TIME ( #230, #6 ) ;
#58 = ADVANCED_FACE ( 'NONE', ( #130, #195 ), #1, .T. ) ;
#59 = AXIS2_PLACEMENT_3D ( 'NONE', #159, #28, #156 ) ;
#60 = EDGE_LOOP ( 'NONE', ( #131 ) ) ;
#61 = APPROVAL_PERSON_ORGANIZATION ( #151, #6, #209 ) ;
#62 = VERTEX_POINT ( 'NONE', #138 ) ;
#63 = EDGE_CURVE ( 'NONE', #103, #103, #16, .T. ) ;
#64 = AXIS2_PLACEMENT_3D ( 'NONE', #84, #118, #215 ) ;
#65 = CARTESIAN_POINT ( 'NONE',  ( 1.326762908760390675E-13, 1.599999999999997202, 38.00000000000000711 ) ) ;
#66 = DIRECTION ( 'NONE',  ( 0.0000000000000000000, 1.000000000000000000, 0.0000000000000000000 ) ) ;
#67 = APPLICATION_CONTEXT ( 'configuration controlled 3d designs of mechanical parts and assemblies' ) ;
#68 = VERTEX_POINT ( 'NONE', #121 ) ;
#69 = EDGE_CURVE ( 'NONE', #62, #62, #149, .T. ) ;
#70 = APPROVAL_ROLE ( '' ) ;
#71 = SECURITY_CLASSIFICATION_LEVEL ( 'unclassified' ) ;
#72 = DIRECTION ( 'NONE',  ( 0.0000000000000000000, 1.000000000000000000, 0.0000000000000000000 ) ) ;
#73 = DIRECTION ( 'NONE',  ( 1.000000000000000000, 0.0000000000000000000, -3.469446951953617344E-15 ) ) ;
#74 = CALENDAR_DATE ( 2021, 15, 11 ) ;
#75 = EDGE_CURVE ( 'NONE', #235, #235, #39, .T. ) ;
#76 = ORIENTED_EDGE ( 'NONE', *, *, #75, .T. ) ;
#77 = AXIS2_PLACEMENT_3D ( 'NONE', #150, #56, #2 ) ;
#78 = DATE_AND_TIME ( #229, #127 ) ;
#79 = CARTESIAN_POINT ( 'NONE',  ( 1.312796983405018394E-13, -4.604671964794048513E-15, 37.60000000000000853 ) ) ;
#80 = AXIS2_PLACEMENT_3D ( 'NONE', #233, #13, #72 ) ;
#81 = APPROVAL_ROLE ( '' ) ;
#82 = PERSON_AND_ORGANIZATION_ROLE ( 'classification_officer' ) ;
#83 = APPROVAL_PERSON_ORGANIZATION ( #160, #183, #70 ) ;
#84 = CARTESIAN_POINT ( 'NONE',  ( -1.710332578358783092E-30, 0.0000000000000000000, -4.898587196589412829E-16 ) ) ;
#85 = AXIS2_PLACEMENT_3D ( 'NONE', #218, #47, #73 ) ;
#86 =( NAMED_UNIT ( * ) SI_UNIT ( $, .STERADIAN. ) SOLID_ANGLE_UNIT ( ) );
#87 = FACE_OUTER_BOUND ( 'NONE', #180, .T. ) ;
#88 = SHAPE_DEFINITION_REPRESENTATION ( #120, #141 ) ;
#89 = DIRECTION ( 'NONE',  ( 4.275831445896958607E-31, 1.000000000000000000, 1.224646799147353207E-16 ) ) ;
#90 = EDGE_LOOP ( 'NONE', ( #110 ) ) ;
#91 = EDGE_LOOP ( 'NONE', ( #109 ) ) ;
#92 = AXIS2_PLACEMENT_3D ( 'NONE', #14, #44, #25 ) ;
#93 = CC_DESIGN_PERSON_AND_ORGANIZATION_ASSIGNMENT ( #186, #135, ( #18 ) ) ;
#94 = ORIENTED_EDGE ( 'NONE', *, *, #213, .T. ) ;
#95 = PRODUCT_DEFINITION_FORMATION_WITH_SPECIFIED_SOURCE ( 'ANY', '', #18, .NOT_KNOWN. ) ;
#96 = DIRECTION ( 'NONE',  ( 0.0000000000000000000, 0.0000000000000000000, 1.000000000000000000 ) ) ;
#97 = CLOSED_SHELL ( 'NONE', ( #158, #115, #231 ) ) ;
#98 = EDGE_CURVE ( 'NONE', #212, #212, #165, .T. ) ;
#99 = PERSON_AND_ORGANIZATION_ROLE ( 'creator' ) ;
#100 = ORGANIZATION ( 'UNSPECIFIED', 'UNSPECIFIED', '' ) ;
#101 = ADVANCED_FACE ( 'NONE', ( #139 ), #42, .F. ) ;
#102 = CARTESIAN_POINT ( 'NONE',  ( 1.117274028429802200E-14, 0.0000000000000000000, 3.199999999999998401 ) ) ;
#103 = VERTEX_POINT ( 'NONE', #217 ) ;
#104 = DIRECTION ( 'NONE',  ( 3.491481338843133355E-15, -0.0000000000000000000, 1.000000000000000000 ) ) ;
#105 = DATE_AND_TIME ( #74, #184 ) ;
#106 = CARTESIAN_POINT ( 'NONE',  ( 0.0000000000000000000, 0.0000000000000000000, 0.0000000000000000000 ) ) ;
#107 = AXIS2_PLACEMENT_3D ( 'NONE', #106, #240, #137 ) ;
#108 = CALENDAR_DATE ( 2021, 15, 11 ) ;
#109 = ORIENTED_EDGE ( 'NONE', *, *, #69, .T. ) ;
#110 = ORIENTED_EDGE ( 'NONE', *, *, #213, .F. ) ;
#111 = CIRCLE ( 'NONE', #64, 0.7499999999999997780 ) ;
#112 = APPROVAL_STATUS ( 'not_yet_approved' ) ;
#113 = PERSON_AND_ORGANIZATION ( #237, #100 ) ;
#114 = CYLINDRICAL_SURFACE ( 'NONE', #59, 0.7499999999999995559 ) ;
#115 = ADVANCED_FACE ( 'NONE', ( #153, #36 ), #114, .T. ) ;
#116 = AXIS2_PLACEMENT_3D ( 'NONE', #79, #54, #206 ) ;
#117 = CARTESIAN_POINT ( 'NONE',  ( 1.117274028429802358E-14, 0.0000000000000000000, 3.199999999999998845 ) ) ;
#118 = DIRECTION ( 'NONE',  ( 3.491481338843133355E-15, -0.0000000000000000000, 1.000000000000000000 ) ) ;
#119 = FACE_OUTER_BOUND ( 'NONE', #52, .T. ) ;
#120 = PRODUCT_DEFINITION_SHAPE ( 'NONE', 'NONE',  #33 ) ;
#121 = CARTESIAN_POINT ( 'NONE',  ( 0.7499999999999997780, 0.0000000000000000000, -3.108469723791290609E-15 ) ) ;
#122 = PERSON_AND_ORGANIZATION ( #237, #100 ) ;
#123 = DIRECTION ( 'NONE',  ( 3.491481338843133355E-15, -0.0000000000000000000, 1.000000000000000000 ) ) ;
#124 = ADVANCED_FACE ( 'NONE', ( #194, #119 ), #40, .T. ) ;
#125 = UNCERTAINTY_MEASURE_WITH_UNIT (LENGTH_MEASURE( 1.000000000000000082E-05 ), #238, 'distance_accuracy_value', 'NONE');
#126 = APPROVAL_STATUS ( 'not_yet_approved' ) ;
#127 = LOCAL_TIME ( 9, 6, 0.0000000000000000000, #187 ) ;
#128 = CARTESIAN_POINT ( 'NONE',  ( 5.444081844965992095E-14, 0.0000000000000000000, 15.59247011977395481 ) ) ;
#129 = EDGE_LOOP ( 'NONE', ( #76 ) ) ;
#130 = FACE_BOUND ( 'NONE', #129, .T. ) ;
#131 = ORIENTED_EDGE ( 'NONE', *, *, #199, .F. ) ;
#132 = EDGE_LOOP ( 'NONE', ( #94 ) ) ;
#133 = FACE_OUTER_BOUND ( 'NONE', #31, .T. ) ;
#134 = CARTESIAN_POINT ( 'NONE',  ( 0.0000000000000000000, 0.0000000000000000000, 0.0000000000000000000 ) ) ;
#135 = PERSON_AND_ORGANIZATION_ROLE ( 'design_owner' ) ;
#136 = CALENDAR_DATE ( 2021, 15, 11 ) ;
#137 = DIRECTION ( 'NONE',  ( 4.275831445896958607E-31, 1.000000000000000000, 1.224646799147353207E-16 ) ) ;
#138 = CARTESIAN_POINT ( 'NONE',  ( 0.8181483474218728125, 0.0000000000000000000, 3.717638090205024337 ) ) ;
#139 = FACE_OUTER_BOUND ( 'NONE', #197, .T. ) ;
#140 = PRODUCT_RELATED_PRODUCT_CATEGORY ( 'detail', '', ( #18 ) ) ;
#141 = ADVANCED_BREP_SHAPE_REPRESENTATION ( '334955', ( #144, #220, #174 ), #157 ) ;
#142 = PLANE ( 'NONE',  #234 ) ;
#143 = FACE_OUTER_BOUND ( 'NONE', #163, .T. ) ;
#144 = MANIFOLD_SOLID_BREP ( 'Corps-Déplacer/Copier1[1]', #169 ) ;
#145 = EDGE_LOOP ( 'NONE', ( #242 ) ) ;
#146 = CARTESIAN_POINT ( 'NONE',  ( 1.298006401652327838E-14, 0.0000000000000000000, 3.717638090205027446 ) ) ;
#147 = COORDINATED_UNIVERSAL_TIME_OFFSET ( 1, 0, .AHEAD. ) ;
#148 = EDGE_LOOP ( 'NONE', ( #228 ) ) ;
#149 = CIRCLE ( 'NONE', #26, 0.8181483474218598229 ) ;
#150 = CARTESIAN_POINT ( 'NONE',  ( 1.117274028429802674E-14, -6.938893903907227392E-16, 3.199999999999999734 ) ) ;
#151 = PERSON_AND_ORGANIZATION ( #237, #100 ) ;
#152 = CIRCLE ( 'NONE', #43, 2.000000000000000000 ) ;
#153 = FACE_OUTER_BOUND ( 'NONE', #132, .T. ) ;
#154 = DATE_TIME_ROLE ( 'creation_date' ) ;
#155 = LOCAL_TIME ( 9, 6, 0.0000000000000000000, #38 ) ;
#156 = DIRECTION ( 'NONE',  ( 1.000000000000000000, 0.0000000000000000000, -3.491481338843133355E-15 ) ) ;
#157 =( GEOMETRIC_REPRESENTATION_CONTEXT ( 3 ) GLOBAL_UNCERTAINTY_ASSIGNED_CONTEXT ( ( #125 ) ) GLOBAL_UNIT_ASSIGNED_CONTEXT ( ( #238, #214, #86 ) ) REPRESENTATION_CONTEXT ( 'NONE', 'WORKASPACE' ) );
#158 = ADVANCED_FACE ( 'NONE', ( #87 ), #176, .T. ) ;
#159 = CARTESIAN_POINT ( 'NONE',  ( 0.0000000000000000000, 0.0000000000000000000, 0.0000000000000000000 ) ) ;
#160 = PERSON_AND_ORGANIZATION ( #237, #100 ) ;
#161 = CARTESIAN_POINT ( 'NONE',  ( 2.838004694917687166E-14, 0.0000000000000000000, 8.128368504636004133 ) ) ;
#162 = DIRECTION ( 'NONE',  ( 1.000000000000000000, 0.0000000000000000000, -3.710532561149436110E-15 ) ) ;
#163 = EDGE_LOOP ( 'NONE', ( #50 ) ) ;
#164 = PERSON_AND_ORGANIZATION_ROLE ( 'design_supplier' ) ;
#165 = CIRCLE ( 'NONE', #12, 0.7499999999999993339 ) ;
#166 = MECHANICAL_CONTEXT ( 'NONE', #51, 'mechanical' ) ;
#167 = PLANE ( 'NONE',  #77 ) ;
#168 = APPROVAL ( #205, 'UNSPECIFIED' ) ;
#169 = CLOSED_SHELL ( 'NONE', ( #124, #58, #101, #211, #45, #19 ) ) ;
#170 = EDGE_CURVE ( 'NONE', #41, #41, #152, .T. ) ;
#171 = PERSON_AND_ORGANIZATION ( #237, #100 ) ;
#172 = DIRECTION ( 'NONE',  ( 1.000000000000000000, 0.0000000000000000000, -3.469446951953617344E-15 ) ) ;
#173 = CARTESIAN_POINT ( 'NONE',  ( 2.000000000000028422, 0.0000000000000000000, 8.128368504635997027 ) ) ;
#174 = AXIS2_PLACEMENT_3D ( 'NONE', #134, #96, #11 ) ;
#175 = VERTEX_POINT ( 'NONE', #236 ) ;
#176 = PLANE ( 'NONE',  #92 ) ;
#177 = DATE_AND_TIME ( #108, #239 ) ;
#178 = CC_DESIGN_PERSON_AND_ORGANIZATION_ASSIGNMENT ( #34, #99, ( #95 ) ) ;
#179 = DIRECTION ( 'NONE',  ( 3.491481338843133355E-15, -0.0000000000000000000, 1.000000000000000000 ) ) ;
#180 = EDGE_LOOP ( 'NONE', ( #32 ) ) ;
#181 = APPLICATION_PROTOCOL_DEFINITION ( 'international standard', 'config_control_design', 1994, #51 ) ;
#182 = EDGE_LOOP ( 'NONE', ( #200 ) ) ;
#183 = APPROVAL ( #126, 'UNSPECIFIED' ) ;
#184 = LOCAL_TIME ( 9, 6, 0.0000000000000000000, #216 ) ;
#185 = PERSON_AND_ORGANIZATION_ROLE ( 'creator' ) ;
#186 = PERSON_AND_ORGANIZATION ( #237, #100 ) ;
#187 = COORDINATED_UNIVERSAL_TIME_OFFSET ( 1, 0, .AHEAD. ) ;
#188 = CC_DESIGN_PERSON_AND_ORGANIZATION_ASSIGNMENT ( #122, #82, ( #210 ) ) ;
#189 = FACE_OUTER_BOUND ( 'NONE', #201, .T. ) ;
#190 = CARTESIAN_POINT ( 'NONE',  ( -4.275831445896957731E-31, 1.499759782661857608E-32, -1.224646799147353207E-16 ) ) ;
#191 = DIRECTION ( 'NONE',  ( 1.000000000000000000, 0.0000000000000000000, -3.469446951953614189E-15 ) ) ;
#192 = AXIS2_PLACEMENT_3D ( 'NONE', #224, #53, #20 ) ;
#193 = APPROVAL_DATE_TIME ( #177, #183 ) ;
#194 = FACE_OUTER_BOUND ( 'NONE', #148, .T. ) ;
#195 = FACE_OUTER_BOUND ( 'NONE', #60, .T. ) ;
#196 = DATE_TIME_ROLE ( 'classification_date' ) ;
#197 = EDGE_LOOP ( 'NONE', ( #202 ) ) ;
#198 = CIRCLE ( 'NONE', #80, 1.999999999999999556 ) ;
#199 = EDGE_CURVE ( 'NONE', #175, #175, #198, .T. ) ;
#200 = ORIENTED_EDGE ( 'NONE', *, *, #63, .F. ) ;
#201 = EDGE_LOOP ( 'NONE', ( #204 ) ) ;
#202 = ORIENTED_EDGE ( 'NONE', *, *, #75, .F. ) ;
#203 = CC_DESIGN_DATE_AND_TIME_ASSIGNMENT ( #105, #196, ( #210 ) ) ;
#204 = ORIENTED_EDGE ( 'NONE', *, *, #98, .T. ) ;
#205 = APPROVAL_STATUS ( 'not_yet_approved' ) ;
#206 = DIRECTION ( 'NONE',  ( 0.0000000000000000000, 1.000000000000000000, 0.0000000000000000000 ) ) ;
#207 = APPROVAL_DATE_TIME ( #3, #168 ) ;
#208 = APPLICATION_PROTOCOL_DEFINITION ( 'international standard', 'config_control_design', 1994, #67 ) ;
#209 = APPROVAL_ROLE ( '' ) ;
#210 = SECURITY_CLASSIFICATION ( '', '', #71 ) ;
#211 = ADVANCED_FACE ( 'NONE', ( #189, #143 ), #5, .F. ) ;
#212 = VERTEX_POINT ( 'NONE', #27 ) ;
#213 = EDGE_CURVE ( 'NONE', #68, #68, #111, .T. ) ;
#214 =( NAMED_UNIT ( * ) PLANE_ANGLE_UNIT ( ) SI_UNIT ( $, .RADIAN. ) );
#215 = DIRECTION ( 'NONE',  ( 1.000000000000000000, 0.0000000000000000000, -3.491481338843133355E-15 ) ) ;
#216 = COORDINATED_UNIVERSAL_TIME_OFFSET ( 1, 0, .AHEAD. ) ;
#217 = CARTESIAN_POINT ( 'NONE',  ( 0.7500000000000105471, 0.0000000000000000000, 3.199999999999995737 ) ) ;
#218 = CARTESIAN_POINT ( 'NONE',  ( 1.117274028429802200E-14, 0.0000000000000000000, 3.199999999999998401 ) ) ;
#219 = CARTESIAN_POINT ( 'NONE',  ( 1.326762908760390675E-13, -4.653657836759942730E-15, 38.00000000000000711 ) ) ;
#220 = MANIFOLD_SOLID_BREP ( 'Corps-Déplacer/Copier1[2]', #97 ) ;
#221 = CC_DESIGN_APPROVAL ( #168, ( #33 ) ) ;
#222 = CONICAL_SURFACE ( 'NONE', #232, 4.000000000000000000, 0.2617993877991428575 ) ;
#223 = CC_DESIGN_PERSON_AND_ORGANIZATION_ASSIGNMENT ( #113, #164, ( #95 ) ) ;
#224 = CARTESIAN_POINT ( 'NONE',  ( 1.326762908760390675E-13, -8.377713426430119900E-31, 38.00000000000000711 ) ) ;
#225 = DIRECTION ( 'NONE',  ( 1.000000000000000000, 0.0000000000000000000, -3.469446951953614189E-15 ) ) ;
#226 = CC_DESIGN_SECURITY_CLASSIFICATION ( #210, ( #95 ) ) ;
#227 = ORIENTED_EDGE ( 'NONE', *, *, #170, .F. ) ;
#228 = ORIENTED_EDGE ( 'NONE', *, *, #199, .T. ) ;
#229 = CALENDAR_DATE ( 2021, 15, 11 ) ;
#230 = DATE_AND_TIME ( #35, #55 ) ;
#231 = ADVANCED_FACE ( 'NONE', ( #46 ), #142, .T. ) ;
#232 = AXIS2_PLACEMENT_3D ( 'NONE', #128, #179, #225 ) ;
#233 = CARTESIAN_POINT ( 'NONE',  ( 1.312796983405018394E-13, -4.604671964794048513E-15, 37.60000000000000853 ) ) ;
#234 = AXIS2_PLACEMENT_3D ( 'NONE', #190, #15, #89 ) ;
#235 = VERTEX_POINT ( 'NONE', #65 ) ;
#236 = CARTESIAN_POINT ( 'NONE',  ( 1.312796983405018394E-13, 1.999999999999994893, 37.60000000000000853 ) ) ;
#237 = PERSON ( 'UNSPECIFIED', 'UNSPECIFIED', 'UNSPECIFIED', ('UNSPECIFIED'), ('UNSPECIFIED'), ('UNSPECIFIED') ) ;
#238 =( LENGTH_UNIT ( ) NAMED_UNIT ( * ) SI_UNIT ( .MILLI., .METRE. ) );
#239 = LOCAL_TIME ( 9, 6, 0.0000000000000000000, #147 ) ;
#240 = DIRECTION ( 'NONE',  ( -3.491481338843133355E-15, 1.224646799147353207E-16, -1.000000000000000000 ) ) ;
#241 = CC_DESIGN_PERSON_AND_ORGANIZATION_ASSIGNMENT ( #171, #185, ( #33 ) ) ;
#242 = ORIENTED_EDGE ( 'NONE', *, *, #98, .F. ) ;
#243 = ORIENTED_EDGE ( 'NONE', *, *, #170, .T. ) ;
ENDSEC;
END-ISO-10303-21;
