ISO-10303-21;
HEADER;
FILE_DESCRIPTION (( 'STEP AP203' ),
    '1' );
FILE_NAME ('334954.step',
    '2021-11-15T08:06:00',
    ( '' ),
    ( '' ),
    'SwSTEP 2.0',
    'SolidWorks 2019',
    '' );
FILE_SCHEMA (( 'CONFIG_CONTROL_DESIGN' ));
ENDSEC;

DATA;
#1 = AXIS2_PLACEMENT_3D ( 'NONE', #32, #142, #110 ) ;
#2 = DIRECTION ( 'NONE',  ( 3.491481338843133355E-15, -0.0000000000000000000, 1.000000000000000000 ) ) ;
#3 = CALENDAR_DATE ( 2021, 15, 11 ) ;
#4 = CARTESIAN_POINT ( 'NONE',  ( 2.833326996892032138E-14, 0.0000000000000000000, 8.114971045014453210 ) ) ;
#5 = ORIENTED_EDGE ( 'NONE', *, *, #224, .F. ) ;
#6 = CIRCLE ( 'NONE', #237, 0.6999999999999996225 ) ;
#7 = ORIENTED_EDGE ( 'NONE', *, *, #186, .F. ) ;
#8 = EDGE_CURVE ( 'NONE', #165, #165, #118, .T. ) ;
#9 = EDGE_LOOP ( 'NONE', ( #97 ) ) ;
#10 = ORIENTED_EDGE ( 'NONE', *, *, #186, .T. ) ;
#11 = AXIS2_PLACEMENT_3D ( 'NONE', #14, #105, #178 ) ;
#12 = DIRECTION ( 'NONE',  ( -4.275831445896958607E-31, -1.000000000000000000, -1.224646799147353207E-16 ) ) ;
#13 = APPROVAL_STATUS ( 'not_yet_approved' ) ;
#14 = CARTESIAN_POINT ( 'NONE',  ( -1.710332578358783092E-30, 0.0000000000000000000, -4.898587196589412829E-16 ) ) ;
#15 = DATE_TIME_ROLE ( 'classification_date' ) ;
#16 = CARTESIAN_POINT ( 'NONE',  ( 0.0000000000000000000, 0.0000000000000000000, 0.0000000000000000000 ) ) ;
#17 = FACE_OUTER_BOUND ( 'NONE', #154, .T. ) ;
#18 = AXIS2_PLACEMENT_3D ( 'NONE', #4, #2, #41 ) ;
#19 = APPROVAL_DATE_TIME ( #177, #132 ) ;
#20 = TOROIDAL_SURFACE ( 'NONE', #155, 2.700000000000000622, 2.000000000000000444 ) ;
#21 = ADVANCED_FACE ( 'NONE', ( #152 ), #230, .T. ) ;
#22 = ORIENTED_EDGE ( 'NONE', *, *, #163, .F. ) ;
#23 = DIRECTION ( 'NONE',  ( 0.0000000000000000000, 1.000000000000000000, 0.0000000000000000000 ) ) ;
#24 = CALENDAR_DATE ( 2021, 15, 11 ) ;
#25 = CC_DESIGN_PERSON_AND_ORGANIZATION_ASSIGNMENT ( #232, #141, ( #170 ) ) ;
#26 = PRODUCT_DEFINITION_SHAPE ( 'NONE', 'NONE',  #231 ) ;
#27 = COORDINATED_UNIVERSAL_TIME_OFFSET ( 1, 0, .AHEAD. ) ;
#28 = EDGE_LOOP ( 'NONE', ( #210 ) ) ;
#29 = FACE_OUTER_BOUND ( 'NONE', #188, .T. ) ;
#30 = CC_DESIGN_APPROVAL ( #167, ( #231 ) ) ;
#31 = APPROVAL_STATUS ( 'not_yet_approved' ) ;
#32 = CARTESIAN_POINT ( 'NONE',  ( 1.326762908760390675E-13, -8.377713426430119900E-31, 38.00000000000000711 ) ) ;
#33 = CC_DESIGN_PERSON_AND_ORGANIZATION_ASSIGNMENT ( #218, #107, ( #184 ) ) ;
#34 = CALENDAR_DATE ( 2021, 15, 11 ) ;
#35 = CARTESIAN_POINT ( 'NONE',  ( 1.047444401652939533E-14, 0.0000000000000000000, 2.999999999999998668 ) ) ;
#36 = CARTESIAN_POINT ( 'NONE',  ( 1.047444401652940007E-14, -6.505213034913025618E-16, 3.000000000000000000 ) ) ;
#37 = DIRECTION ( 'NONE',  ( 1.000000000000000000, 0.0000000000000000000, -3.387477461480717200E-15 ) ) ;
#38 = SHAPE_DEFINITION_REPRESENTATION ( #26, #40 ) ;
#39 = AXIS2_PLACEMENT_3D ( 'NONE', #58, #214, #50 ) ;
#40 = ADVANCED_BREP_SHAPE_REPRESENTATION ( '334954', ( #79, #85, #114 ), #75 ) ;
#41 = DIRECTION ( 'NONE',  ( 1.000000000000000000, 0.0000000000000000000, -3.469446951953614189E-15 ) ) ;
#42 = CONICAL_SURFACE ( 'NONE', #39, 1.999999999999999556, 0.7853981633974485010 ) ;
#43 = ORIENTED_EDGE ( 'NONE', *, *, #169, .F. ) ;
#44 = ORIENTED_EDGE ( 'NONE', *, *, #216, .T. ) ;
#45 = DIRECTION ( 'NONE',  ( 0.0000000000000000000, 0.0000000000000000000, 1.000000000000000000 ) ) ;
#46 = PERSON_AND_ORGANIZATION ( #227, #103 ) ;
#47 = EDGE_LOOP ( 'NONE', ( #5 ) ) ;
#48 = ORIENTED_EDGE ( 'NONE', *, *, #224, .T. ) ;
#49 =( LENGTH_UNIT ( ) NAMED_UNIT ( * ) SI_UNIT ( .MILLI., .METRE. ) );
#50 = DIRECTION ( 'NONE',  ( 0.0000000000000000000, 1.000000000000000000, 0.0000000000000000000 ) ) ;
#51 = APPLICATION_PROTOCOL_DEFINITION ( 'international standard', 'config_control_design', 1994, #143 ) ;
#52 = DIRECTION ( 'NONE',  ( 4.275831445896958607E-31, 1.000000000000000000, 1.224646799147353207E-16 ) ) ;
#53 = AXIS2_PLACEMENT_3D ( 'NONE', #180, #90, #69 ) ;
#54 = CALENDAR_DATE ( 2021, 15, 11 ) ;
#55 = CARTESIAN_POINT ( 'NONE',  ( 1.047444401652939533E-14, 0.0000000000000000000, 2.999999999999998668 ) ) ;
#56 = AXIS2_PLACEMENT_3D ( 'NONE', #122, #213, #156 ) ;
#57 = APPROVAL_ROLE ( '' ) ;
#58 = CARTESIAN_POINT ( 'NONE',  ( 1.312796983405018394E-13, -4.604671964794048513E-15, 37.60000000000000853 ) ) ;
#59 = VERTEX_POINT ( 'NONE', #98 ) ;
#60 = DIRECTION ( 'NONE',  ( -3.491481338843133355E-15, 1.224646799147353207E-16, -1.000000000000000000 ) ) ;
#61 = CARTESIAN_POINT ( 'NONE',  ( 0.7000000000000101696, 0.0000000000000000000, 2.999999999999996003 ) ) ;
#62 = DATE_AND_TIME ( #34, #81 ) ;
#63 = DIRECTION ( 'NONE',  ( 1.000000000000000000, 0.0000000000000000000, -3.717264591378874374E-15 ) ) ;
#64 =( NAMED_UNIT ( * ) PLANE_ANGLE_UNIT ( ) SI_UNIT ( $, .RADIAN. ) );
#65 = ADVANCED_FACE ( 'NONE', ( #161 ), #181, .F. ) ;
#66 = DATE_AND_TIME ( #24, #133 ) ;
#67 = ORIENTED_EDGE ( 'NONE', *, *, #176, .T. ) ;
#68 = CC_DESIGN_SECURITY_CLASSIFICATION ( #229, ( #184 ) ) ;
#69 = DIRECTION ( 'NONE',  ( 1.000000000000000000, 0.0000000000000000000, -3.491481338843133750E-15 ) ) ;
#70 = DIRECTION ( 'NONE',  ( 3.491481338843133355E-15, -0.0000000000000000000, 1.000000000000000000 ) ) ;
#71 = APPROVAL_ROLE ( '' ) ;
#72 = DIRECTION ( 'NONE',  ( 3.491481338843133355E-15, -0.0000000000000000000, 1.000000000000000000 ) ) ;
#73 = ADVANCED_FACE ( 'NONE', ( #238, #146 ), #182, .T. ) ;
#74 = FACE_OUTER_BOUND ( 'NONE', #83, .T. ) ;
#75 =( GEOMETRIC_REPRESENTATION_CONTEXT ( 3 ) GLOBAL_UNCERTAINTY_ASSIGNED_CONTEXT ( ( #162 ) ) GLOBAL_UNIT_ASSIGNED_CONTEXT ( ( #49, #64, #136 ) ) REPRESENTATION_CONTEXT ( 'NONE', 'WORKASPACE' ) );
#76 = VERTEX_POINT ( 'NONE', #204 ) ;
#77 = APPROVAL_STATUS ( 'not_yet_approved' ) ;
#78 = CC_DESIGN_DATE_AND_TIME_ASSIGNMENT ( #225, #15, ( #229 ) ) ;
#79 = MANIFOLD_SOLID_BREP ( 'Corps-Déplacer/Copier1[1]', #233 ) ;
#80 = ORIENTED_EDGE ( 'NONE', *, *, #216, .F. ) ;
#81 = LOCAL_TIME ( 9, 6, 0.0000000000000000000, #145 ) ;
#82 = AXIS2_PLACEMENT_3D ( 'NONE', #16, #124, #196 ) ;
#83 = EDGE_LOOP ( 'NONE', ( #228 ) ) ;
#84 = AXIS2_PLACEMENT_3D ( 'NONE', #36, #127, #12 ) ;
#85 = MANIFOLD_SOLID_BREP ( 'Corps-Déplacer/Copier1[2]', #148 ) ;
#86 = APPROVAL_PERSON_ORGANIZATION ( #158, #132, #57 ) ;
#87 = EDGE_LOOP ( 'NONE', ( #10 ) ) ;
#88 = DIRECTION ( 'NONE',  ( 3.491481338843133355E-15, -0.0000000000000000000, 1.000000000000000000 ) ) ;
#89 = PERSON_AND_ORGANIZATION ( #227, #103 ) ;
#90 = DIRECTION ( 'NONE',  ( 3.491481338843133355E-15, -0.0000000000000000000, 1.000000000000000000 ) ) ;
#91 = PRODUCT_RELATED_PRODUCT_CATEGORY ( 'detail', '', ( #170 ) ) ;
#92 = PERSON_AND_ORGANIZATION ( #227, #103 ) ;
#93 = FACE_BOUND ( 'NONE', #195, .T. ) ;
#94 = CIRCLE ( 'NONE', #113, 1.600000000000001865 ) ;
#95 = PERSON_AND_ORGANIZATION_ROLE ( 'creator' ) ;
#96 = AXIS2_PLACEMENT_3D ( 'NONE', #242, #104, #52 ) ;
#97 = ORIENTED_EDGE ( 'NONE', *, *, #8, .F. ) ;
#98 = CARTESIAN_POINT ( 'NONE',  ( 2.000000000000028422, 0.0000000000000000000, 8.114971045014446105 ) ) ;
#99 = CC_DESIGN_APPROVAL ( #226, ( #229 ) ) ;
#100 = EDGE_LOOP ( 'NONE', ( #115 ) ) ;
#101 = APPLICATION_CONTEXT ( 'configuration controlled 3d designs of mechanical parts and assemblies' ) ;
#102 = EDGE_LOOP ( 'NONE', ( #80 ) ) ;
#103 = ORGANIZATION ( 'UNSPECIFIED', 'UNSPECIFIED', '' ) ;
#104 = DIRECTION ( 'NONE',  ( -3.491481338843133355E-15, 1.224646799147353207E-16, -1.000000000000000000 ) ) ;
#105 = DIRECTION ( 'NONE',  ( 3.491481338843133355E-15, -0.0000000000000000000, 1.000000000000000000 ) ) ;
#106 = ADVANCED_FACE ( 'NONE', ( #93, #201 ), #42, .T. ) ;
#107 = PERSON_AND_ORGANIZATION_ROLE ( 'design_supplier' ) ;
#108 = DIRECTION ( 'NONE',  ( 3.491481338843133355E-15, -0.0000000000000000000, 1.000000000000000000 ) ) ;
#109 = DESIGN_CONTEXT ( 'detailed design', #143, 'design' ) ;
#110 = DIRECTION ( 'NONE',  ( 4.275831445896958607E-31, 1.000000000000000000, 1.224646799147353207E-16 ) ) ;
#111 = FACE_OUTER_BOUND ( 'NONE', #47, .T. ) ;
#112 = SECURITY_CLASSIFICATION_LEVEL ( 'unclassified' ) ;
#113 = AXIS2_PLACEMENT_3D ( 'NONE', #159, #60, #128 ) ;
#114 = AXIS2_PLACEMENT_3D ( 'NONE', #174, #45, #236 ) ;
#115 = ORIENTED_EDGE ( 'NONE', *, *, #163, .T. ) ;
#116 = CC_DESIGN_PERSON_AND_ORGANIZATION_ASSIGNMENT ( #89, #130, ( #229 ) ) ;
#117 = MECHANICAL_CONTEXT ( 'NONE', #101, 'mechanical' ) ;
#118 = CIRCLE ( 'NONE', #125, 1.999999999999999556 ) ;
#119 = CARTESIAN_POINT ( 'NONE',  ( 5.439404146940336436E-14, 0.0000000000000000000, 15.57907266015240211 ) ) ;
#120 = LOCAL_TIME ( 9, 6, 0.0000000000000000000, #27 ) ;
#121 = ADVANCED_FACE ( 'NONE', ( #74, #147 ), #217, .T. ) ;
#122 = CARTESIAN_POINT ( 'NONE',  ( 1.047444401652940007E-14, -6.505213034913025618E-16, 3.000000000000000000 ) ) ;
#123 = CARTESIAN_POINT ( 'NONE',  ( 0.7000000000000000666, 0.0000000000000000000, -2.933895656849135125E-15 ) ) ;
#124 = DIRECTION ( 'NONE',  ( -3.491481338843133355E-15, 1.224646799147353207E-16, -1.000000000000000000 ) ) ;
#125 = AXIS2_PLACEMENT_3D ( 'NONE', #137, #189, #23 ) ;
#126 = CARTESIAN_POINT ( 'NONE',  ( 0.7681483474218723240, 0.0000000000000000000, 3.517638090205025492 ) ) ;
#127 = DIRECTION ( 'NONE',  ( 3.491481338843133355E-15, -1.224646799147353207E-16, 1.000000000000000000 ) ) ;
#128 = DIRECTION ( 'NONE',  ( 0.0000000000000000000, 1.000000000000000000, 0.0000000000000000000 ) ) ;
#129 = VERTEX_POINT ( 'NONE', #123 ) ;
#130 = PERSON_AND_ORGANIZATION_ROLE ( 'classification_officer' ) ;
#131 = APPROVAL_DATE_TIME ( #62, #226 ) ;
#132 = APPROVAL ( #77, 'UNSPECIFIED' ) ;
#133 = LOCAL_TIME ( 9, 6, 0.0000000000000000000, #191 ) ;
#134 = ADVANCED_FACE ( 'NONE', ( #17 ), #240, .F. ) ;
#135 = EDGE_LOOP ( 'NONE', ( #48 ) ) ;
#136 =( NAMED_UNIT ( * ) SI_UNIT ( $, .STERADIAN. ) SOLID_ANGLE_UNIT ( ) );
#137 = CARTESIAN_POINT ( 'NONE',  ( 1.312796983405018394E-13, -4.604671964794048513E-15, 37.60000000000000853 ) ) ;
#138 = ADVANCED_FACE ( 'NONE', ( #219, #29 ), #20, .F. ) ;
#139 = LOCAL_TIME ( 9, 6, 0.0000000000000000000, #168 ) ;
#140 = DIRECTION ( 'NONE',  ( 1.000000000000000000, 0.0000000000000000000, -3.491481338843133355E-15 ) ) ;
#141 = PERSON_AND_ORGANIZATION_ROLE ( 'design_owner' ) ;
#142 = DIRECTION ( 'NONE',  ( -3.491481338843133355E-15, 1.224646799147353207E-16, -1.000000000000000000 ) ) ;
#143 = APPLICATION_CONTEXT ( 'configuration controlled 3d designs of mechanical parts and assemblies' ) ;
#144 = CIRCLE ( 'NONE', #18, 2.000000000000000000 ) ;
#145 = COORDINATED_UNIVERSAL_TIME_OFFSET ( 1, 0, .AHEAD. ) ;
#146 = FACE_OUTER_BOUND ( 'NONE', #135, .T. ) ;
#147 = FACE_OUTER_BOUND ( 'NONE', #102, .T. ) ;
#148 = CLOSED_SHELL ( 'NONE', ( #21, #121, #150 ) ) ;
#149 = PLANE ( 'NONE',  #96 ) ;
#150 = ADVANCED_FACE ( 'NONE', ( #198 ), #149, .T. ) ;
#151 = CARTESIAN_POINT ( 'NONE',  ( 1.312796983405018394E-13, 1.999999999999994893, 37.60000000000000853 ) ) ;
#152 = FACE_OUTER_BOUND ( 'NONE', #171, .T. ) ;
#153 = CIRCLE ( 'NONE', #173, 0.6999999999999996225 ) ;
#154 = EDGE_LOOP ( 'NONE', ( #235 ) ) ;
#155 = AXIS2_PLACEMENT_3D ( 'NONE', #164, #243, #140 ) ;
#156 = DIRECTION ( 'NONE',  ( -4.275831445896958607E-31, -1.000000000000000000, -1.224646799147353207E-16 ) ) ;
#157 = CC_DESIGN_PERSON_AND_ORGANIZATION_ASSIGNMENT ( #160, #95, ( #184 ) ) ;
#158 = PERSON_AND_ORGANIZATION ( #227, #103 ) ;
#159 = CARTESIAN_POINT ( 'NONE',  ( 1.326762908760390675E-13, -4.653657836759942730E-15, 38.00000000000000711 ) ) ;
#160 = PERSON_AND_ORGANIZATION ( #227, #103 ) ;
#161 = FACE_OUTER_BOUND ( 'NONE', #193, .T. ) ;
#162 = UNCERTAINTY_MEASURE_WITH_UNIT (LENGTH_MEASURE( 1.000000000000000082E-05 ), #49, 'distance_accuracy_value', 'NONE');
#163 = EDGE_CURVE ( 'NONE', #223, #223, #153, .T. ) ;
#164 = CARTESIAN_POINT ( 'NONE',  ( 1.047444401652939691E-14, 0.0000000000000000000, 2.999999999999999112 ) ) ;
#165 = VERTEX_POINT ( 'NONE', #151 ) ;
#166 = APPROVAL_PERSON_ORGANIZATION ( #234, #167, #209 ) ;
#167 = APPROVAL ( #31, 'UNSPECIFIED' ) ;
#168 = COORDINATED_UNIVERSAL_TIME_OFFSET ( 1, 0, .AHEAD. ) ;
#169 = EDGE_CURVE ( 'NONE', #129, #129, #197, .T. ) ;
#170 = PRODUCT ( '334954', '334954', '', ( #117 ) ) ;
#171 = EDGE_LOOP ( 'NONE', ( #44 ) ) ;
#172 = APPROVAL_PERSON_ORGANIZATION ( #92, #226, #71 ) ;
#173 = AXIS2_PLACEMENT_3D ( 'NONE', #55, #70, #221 ) ;
#174 = CARTESIAN_POINT ( 'NONE',  ( 0.0000000000000000000, 0.0000000000000000000, 0.0000000000000000000 ) ) ;
#175 = FACE_BOUND ( 'NONE', #87, .T. ) ;
#176 = EDGE_CURVE ( 'NONE', #220, #220, #94, .T. ) ;
#177 = DATE_AND_TIME ( #54, #202 ) ;
#178 = DIRECTION ( 'NONE',  ( 1.000000000000000000, 0.0000000000000000000, -3.491481338843133750E-15 ) ) ;
#179 = CARTESIAN_POINT ( 'NONE',  ( 1.326762908760390675E-13, 1.599999999999997202, 38.00000000000000711 ) ) ;
#180 = CARTESIAN_POINT ( 'NONE',  ( 0.0000000000000000000, 0.0000000000000000000, 0.0000000000000000000 ) ) ;
#181 = PLANE ( 'NONE',  #84 ) ;
#182 = CYLINDRICAL_SURFACE ( 'NONE', #82, 2.000000000000000000 ) ;
#183 = DATE_AND_TIME ( #205, #120 ) ;
#184 = PRODUCT_DEFINITION_FORMATION_WITH_SPECIFIED_SOURCE ( 'ANY', '', #170, .NOT_KNOWN. ) ;
#185 = AXIS2_PLACEMENT_3D ( 'NONE', #203, #72, #37 ) ;
#186 = EDGE_CURVE ( 'NONE', #194, #194, #222, .T. ) ;
#187 = AXIS2_PLACEMENT_3D ( 'NONE', #119, #88, #200 ) ;
#188 = EDGE_LOOP ( 'NONE', ( #7 ) ) ;
#189 = DIRECTION ( 'NONE',  ( -3.491481338843133355E-15, 1.224646799147353207E-16, -1.000000000000000000 ) ) ;
#190 = ADVANCED_FACE ( 'NONE', ( #111, #175 ), #215, .T. ) ;
#191 = COORDINATED_UNIVERSAL_TIME_OFFSET ( 1, 0, .AHEAD. ) ;
#192 = PERSON_AND_ORGANIZATION_ROLE ( 'creator' ) ;
#193 = EDGE_LOOP ( 'NONE', ( #22 ) ) ;
#194 = VERTEX_POINT ( 'NONE', #126 ) ;
#195 = EDGE_LOOP ( 'NONE', ( #67 ) ) ;
#196 = DIRECTION ( 'NONE',  ( 4.275831445896958607E-31, 1.000000000000000000, 1.224646799147353207E-16 ) ) ;
#197 = CIRCLE ( 'NONE', #11, 0.7000000000000000666 ) ;
#198 = FACE_OUTER_BOUND ( 'NONE', #208, .T. ) ;
#199 = DATE_TIME_ROLE ( 'creation_date' ) ;
#200 = DIRECTION ( 'NONE',  ( 1.000000000000000000, 0.0000000000000000000, -3.469446951953614189E-15 ) ) ;
#201 = FACE_OUTER_BOUND ( 'NONE', #9, .T. ) ;
#202 = LOCAL_TIME ( 9, 6, 0.0000000000000000000, #241 ) ;
#203 = CARTESIAN_POINT ( 'NONE',  ( 1.228176774875465329E-14, 0.0000000000000000000, 3.517638090205027712 ) ) ;
#204 = CARTESIAN_POINT ( 'NONE',  ( 0.7000000000000101696, 0.0000000000000000000, 2.999999999999996003 ) ) ;
#205 = CALENDAR_DATE ( 2021, 15, 11 ) ;
#206 = CC_DESIGN_DATE_AND_TIME_ASSIGNMENT ( #183, #199, ( #231 ) ) ;
#207 = CC_DESIGN_APPROVAL ( #132, ( #184 ) ) ;
#208 = EDGE_LOOP ( 'NONE', ( #43 ) ) ;
#209 = APPROVAL_ROLE ( '' ) ;
#210 = ORIENTED_EDGE ( 'NONE', *, *, #8, .T. ) ;
#211 = APPROVAL_DATE_TIME ( #66, #167 ) ;
#212 = CC_DESIGN_PERSON_AND_ORGANIZATION_ASSIGNMENT ( #46, #192, ( #231 ) ) ;
#213 = DIRECTION ( 'NONE',  ( 3.491481338843133355E-15, -1.224646799147353207E-16, 1.000000000000000000 ) ) ;
#214 = DIRECTION ( 'NONE',  ( -3.491481338843133355E-15, 1.224646799147353207E-16, -1.000000000000000000 ) ) ;
#215 = CONICAL_SURFACE ( 'NONE', #187, 4.000000000000000000, 0.2617993877991428575 ) ;
#216 = EDGE_CURVE ( 'NONE', #76, #76, #6, .T. ) ;
#217 = CYLINDRICAL_SURFACE ( 'NONE', #53, 0.6999999999999998446 ) ;
#218 = PERSON_AND_ORGANIZATION ( #227, #103 ) ;
#219 = FACE_OUTER_BOUND ( 'NONE', #100, .T. ) ;
#220 = VERTEX_POINT ( 'NONE', #179 ) ;
#221 = DIRECTION ( 'NONE',  ( 1.000000000000000000, 0.0000000000000000000, -3.717264591378874374E-15 ) ) ;
#222 = CIRCLE ( 'NONE', #185, 0.7681483474218601115 ) ;
#223 = VERTEX_POINT ( 'NONE', #61 ) ;
#224 = EDGE_CURVE ( 'NONE', #59, #59, #144, .T. ) ;
#225 = DATE_AND_TIME ( #3, #139 ) ;
#226 = APPROVAL ( #13, 'UNSPECIFIED' ) ;
#227 = PERSON ( 'UNSPECIFIED', 'UNSPECIFIED', 'UNSPECIFIED', ('UNSPECIFIED'), ('UNSPECIFIED'), ('UNSPECIFIED') ) ;
#228 = ORIENTED_EDGE ( 'NONE', *, *, #169, .T. ) ;
#229 = SECURITY_CLASSIFICATION ( '', '', #112 ) ;
#230 = PLANE ( 'NONE',  #56 ) ;
#231 = PRODUCT_DEFINITION ( 'UNKNOWN', '', #184, #109 ) ;
#232 = PERSON_AND_ORGANIZATION ( #227, #103 ) ;
#233 = CLOSED_SHELL ( 'NONE', ( #73, #106, #134, #138, #190, #65 ) ) ;
#234 = PERSON_AND_ORGANIZATION ( #227, #103 ) ;
#235 = ORIENTED_EDGE ( 'NONE', *, *, #176, .F. ) ;
#236 = DIRECTION ( 'NONE',  ( 1.000000000000000000, 0.0000000000000000000, 0.0000000000000000000 ) ) ;
#237 = AXIS2_PLACEMENT_3D ( 'NONE', #35, #108, #63 ) ;
#238 = FACE_OUTER_BOUND ( 'NONE', #28, .T. ) ;
#239 = APPLICATION_PROTOCOL_DEFINITION ( 'international standard', 'config_control_design', 1994, #101 ) ;
#240 = PLANE ( 'NONE',  #1 ) ;
#241 = COORDINATED_UNIVERSAL_TIME_OFFSET ( 1, 0, .AHEAD. ) ;
#242 = CARTESIAN_POINT ( 'NONE',  ( -4.275831445896957731E-31, 1.499759782661857608E-32, -1.224646799147353207E-16 ) ) ;
#243 = DIRECTION ( 'NONE',  ( 3.491481338843133355E-15, -0.0000000000000000000, 1.000000000000000000 ) ) ;
ENDSEC;
END-ISO-10303-21;
