ISO-10303-21;
HEADER;
FILE_DESCRIPTION (( 'STEP AP203' ),
    '1' );
FILE_NAME ('334953.step',
    '2021-11-15T08:06:00',
    ( '' ),
    ( '' ),
    'SwSTEP 2.0',
    'SolidWorks 2019',
    '' );
FILE_SCHEMA (( 'CONFIG_CONTROL_DESIGN' ));
ENDSEC;

DATA;
#1 = VERTEX_POINT ( 'NONE', #55 ) ;
#2 = CARTESIAN_POINT ( 'NONE',  ( 1.326762908760390675E-13, -8.377713426430119900E-31, 38.00000000000000711 ) ) ;
#3 = DIRECTION ( 'NONE',  ( 1.000000000000000000, 0.0000000000000000000, -3.623325491601632651E-15 ) ) ;
#4 = TOROIDAL_SURFACE ( 'NONE', #201, 2.649999999999999911, 2.000000000000000000 ) ;
#5 = DATE_AND_TIME ( #64, #173 ) ;
#6 = SECURITY_CLASSIFICATION_LEVEL ( 'unclassified' ) ;
#7 = CIRCLE ( 'NONE', #187, 0.6499999999999995781 ) ;
#8 = ADVANCED_FACE ( 'NONE', ( #103 ), #46, .F. ) ;
#9 = ORIENTED_EDGE ( 'NONE', *, *, #14, .F. ) ;
#10 = AXIS2_PLACEMENT_3D ( 'NONE', #213, #93, #120 ) ;
#11 = ORIENTED_EDGE ( 'NONE', *, *, #87, .F. ) ;
#12 = CARTESIAN_POINT ( 'NONE',  ( 9.776147748760767084E-15, 0.0000000000000000000, 2.799999999999998046 ) ) ;
#13 = DIRECTION ( 'NONE',  ( -4.275831445896958607E-31, -1.000000000000000000, -1.224646799147353207E-16 ) ) ;
#14 = EDGE_CURVE ( 'NONE', #209, #209, #152, .T. ) ;
#15 = CIRCLE ( 'NONE', #47, 1.999999999999999556 ) ;
#16 = FACE_OUTER_BOUND ( 'NONE', #69, .T. ) ;
#17 = FACE_OUTER_BOUND ( 'NONE', #181, .T. ) ;
#18 = FACE_BOUND ( 'NONE', #31, .T. ) ;
#19 = PRODUCT ( '334953', '334953', '', ( #194 ) ) ;
#20 = COORDINATED_UNIVERSAL_TIME_OFFSET ( 1, 0, .AHEAD. ) ;
#21 = UNCERTAINTY_MEASURE_WITH_UNIT (LENGTH_MEASURE( 1.000000000000000082E-05 ), #99, 'distance_accuracy_value', 'NONE');
#22 = PRODUCT_DEFINITION_SHAPE ( 'NONE', 'NONE',  #112 ) ;
#23 = DATE_TIME_ROLE ( 'creation_date' ) ;
#24 = PERSON_AND_ORGANIZATION ( #39, #180 ) ;
#25 = ADVANCED_FACE ( 'NONE', ( #109, #18 ), #56, .T. ) ;
#26 = APPROVAL_STATUS ( 'not_yet_approved' ) ;
#27 = DIRECTION ( 'NONE',  ( 1.000000000000000000, 0.0000000000000000000, -3.491481338843133355E-15 ) ) ;
#28 = AXIS2_PLACEMENT_3D ( 'NONE', #138, #189, #53 ) ;
#29 = ORIENTED_EDGE ( 'NONE', *, *, #179, .F. ) ;
#30 = PERSON_AND_ORGANIZATION ( #39, #180 ) ;
#31 = EDGE_LOOP ( 'NONE', ( #146 ) ) ;
#32 = ADVANCED_FACE ( 'NONE', ( #198, #122 ), #196, .T. ) ;
#33 = CC_DESIGN_APPROVAL ( #212, ( #112 ) ) ;
#34 = EDGE_LOOP ( 'NONE', ( #240 ) ) ;
#35 = ORIENTED_EDGE ( 'NONE', *, *, #149, .T. ) ;
#36 = VERTEX_POINT ( 'NONE', #116 ) ;
#37 = CARTESIAN_POINT ( 'NONE',  ( 1.158347148098602504E-14, 0.0000000000000000000, 3.317638090205027535 ) ) ;
#38 = DIRECTION ( 'NONE',  ( 3.491481338843133355E-15, -0.0000000000000000000, 1.000000000000000000 ) ) ;
#39 = PERSON ( 'UNSPECIFIED', 'UNSPECIFIED', 'UNSPECIFIED', ('UNSPECIFIED'), ('UNSPECIFIED'), ('UNSPECIFIED') ) ;
#40 = FACE_OUTER_BOUND ( 'NONE', #130, .T. ) ;
#41 = PLANE ( 'NONE',  #63 ) ;
#42 = AXIS2_PLACEMENT_3D ( 'NONE', #151, #38, #242 ) ;
#43 = CALENDAR_DATE ( 2021, 15, 11 ) ;
#44 = DATE_AND_TIME ( #102, #170 ) ;
#45 = APPROVAL_STATUS ( 'not_yet_approved' ) ;
#46 = PLANE ( 'NONE',  #86 ) ;
#47 = AXIS2_PLACEMENT_3D ( 'NONE', #71, #227, #155 ) ;
#48 = CALENDAR_DATE ( 2021, 15, 11 ) ;
#49 = ORIENTED_EDGE ( 'NONE', *, *, #203, .T. ) ;
#50 = DIRECTION ( 'NONE',  ( -4.275831445896958607E-31, -1.000000000000000000, -1.224646799147353207E-16 ) ) ;
#51 = ORIENTED_EDGE ( 'NONE', *, *, #197, .F. ) ;
#52 = CONICAL_SURFACE ( 'NONE', #124, 1.999999999999999556, 0.7853981633974485010 ) ;
#53 = DIRECTION ( 'NONE',  ( 0.0000000000000000000, 1.000000000000000000, 0.0000000000000000000 ) ) ;
#54 = FACE_OUTER_BOUND ( 'NONE', #34, .T. ) ;
#55 = CARTESIAN_POINT ( 'NONE',  ( 0.7181483474218716134, 0.0000000000000000000, 3.317638090205024870 ) ) ;
#56 = CONICAL_SURFACE ( 'NONE', #76, 4.000000000000000000, 0.2617993877991427465 ) ;
#57 = FACE_OUTER_BOUND ( 'NONE', #65, .T. ) ;
#58 = CARTESIAN_POINT ( 'NONE',  ( 9.776147748760771817E-15, -6.071532165918823844E-16, 2.799999999999999378 ) ) ;
#59 = DIRECTION ( 'NONE',  ( 1.000000000000000000, 0.0000000000000000000, -3.469446951953614189E-15 ) ) ;
#60 = COORDINATED_UNIVERSAL_TIME_OFFSET ( 1, 0, .AHEAD. ) ;
#61 = COORDINATED_UNIVERSAL_TIME_OFFSET ( 1, 0, .AHEAD. ) ;
#62 = EDGE_CURVE ( 'NONE', #1, #1, #211, .T. ) ;
#63 = AXIS2_PLACEMENT_3D ( 'NONE', #58, #156, #13 ) ;
#64 = CALENDAR_DATE ( 2021, 15, 11 ) ;
#65 = EDGE_LOOP ( 'NONE', ( #35 ) ) ;
#66 = CC_DESIGN_APPROVAL ( #163, ( #191 ) ) ;
#67 = EDGE_LOOP ( 'NONE', ( #150 ) ) ;
#68 = CLOSED_SHELL ( 'NONE', ( #154, #143, #190, #193, #25, #8 ) ) ;
#69 = EDGE_LOOP ( 'NONE', ( #49 ) ) ;
#70 = ADVANCED_FACE ( 'NONE', ( #40 ), #117, .T. ) ;
#71 = CARTESIAN_POINT ( 'NONE',  ( 1.312796983405018394E-13, -4.604671964794048513E-15, 37.60000000000000853 ) ) ;
#72 = APPROVAL_PERSON_ORGANIZATION ( #199, #212, #144 ) ;
#73 = CARTESIAN_POINT ( 'NONE',  ( 1.312796983405018394E-13, -4.604671964794048513E-15, 37.60000000000000853 ) ) ;
#74 = FACE_BOUND ( 'NONE', #228, .T. ) ;
#75 = CARTESIAN_POINT ( 'NONE',  ( -4.275831445896957731E-31, 1.499759782661857608E-32, -1.224646799147353207E-16 ) ) ;
#76 = AXIS2_PLACEMENT_3D ( 'NONE', #97, #185, #59 ) ;
#77 = DIRECTION ( 'NONE',  ( 1.000000000000000000, 0.0000000000000000000, -3.336006684570784876E-15 ) ) ;
#78 = APPLICATION_PROTOCOL_DEFINITION ( 'international standard', 'config_control_design', 1994, #95 ) ;
#79 = ADVANCED_FACE ( 'NONE', ( #153 ), #41, .T. ) ;
#80 = APPROVAL_STATUS ( 'not_yet_approved' ) ;
#81 = SHAPE_DEFINITION_REPRESENTATION ( #22, #195 ) ;
#82 = DATE_TIME_ROLE ( 'classification_date' ) ;
#83 = APPROVAL_PERSON_ORGANIZATION ( #159, #163, #140 ) ;
#84 = PERSON_AND_ORGANIZATION_ROLE ( 'design_supplier' ) ;
#85 =( NAMED_UNIT ( * ) SI_UNIT ( $, .STERADIAN. ) SOLID_ANGLE_UNIT ( ) );
#86 = AXIS2_PLACEMENT_3D ( 'NONE', #183, #239, #50 ) ;
#87 = EDGE_CURVE ( 'NONE', #119, #119, #91, .T. ) ;
#88 = DIRECTION ( 'NONE',  ( 3.491481338843133355E-15, -0.0000000000000000000, 1.000000000000000000 ) ) ;
#89 = EDGE_LOOP ( 'NONE', ( #11 ) ) ;
#90 = DIRECTION ( 'NONE',  ( -3.491481338843133355E-15, 1.224646799147353207E-16, -1.000000000000000000 ) ) ;
#91 = CIRCLE ( 'NONE', #42, 2.000000000000000000 ) ;
#92 = CARTESIAN_POINT ( 'NONE',  ( 9.776147748760767084E-15, 0.0000000000000000000, 2.799999999999998046 ) ) ;
#93 = DIRECTION ( 'NONE',  ( -3.491481338843133355E-15, 1.224646799147353207E-16, -1.000000000000000000 ) ) ;
#94 = CC_DESIGN_PERSON_AND_ORGANIZATION_ASSIGNMENT ( #174, #84, ( #133 ) ) ;
#95 = APPLICATION_CONTEXT ( 'configuration controlled 3d designs of mechanical parts and assemblies' ) ;
#96 = CARTESIAN_POINT ( 'NONE',  ( 9.776147748760768662E-15, 0.0000000000000000000, 2.799999999999998490 ) ) ;
#97 = CARTESIAN_POINT ( 'NONE',  ( 5.434726448914683301E-14, 0.0000000000000000000, 15.56567520053085651 ) ) ;
#98 = CC_DESIGN_APPROVAL ( #108, ( #133 ) ) ;
#99 =( LENGTH_UNIT ( ) NAMED_UNIT ( * ) SI_UNIT ( .MILLI., .METRE. ) );
#100 = PERSON_AND_ORGANIZATION_ROLE ( 'classification_officer' ) ;
#101 = CARTESIAN_POINT ( 'NONE',  ( 0.0000000000000000000, 0.0000000000000000000, 0.0000000000000000000 ) ) ;
#102 = CALENDAR_DATE ( 2021, 15, 11 ) ;
#103 = FACE_OUTER_BOUND ( 'NONE', #114, .T. ) ;
#104 = DIRECTION ( 'NONE',  ( 3.491481338843133355E-15, -0.0000000000000000000, 1.000000000000000000 ) ) ;
#105 = CALENDAR_DATE ( 2021, 15, 11 ) ;
#106 = CARTESIAN_POINT ( 'NONE',  ( 0.6500000000000093481, 0.0000000000000000000, 2.799999999999996270 ) ) ;
#107 = LOCAL_TIME ( 9, 6, 0.0000000000000000000, #60 ) ;
#108 = APPROVAL ( #80, 'UNSPECIFIED' ) ;
#109 = FACE_OUTER_BOUND ( 'NONE', #89, .T. ) ;
#110 = DATE_AND_TIME ( #48, #219 ) ;
#111 = APPLICATION_CONTEXT ( 'configuration controlled 3d designs of mechanical parts and assemblies' ) ;
#112 = PRODUCT_DEFINITION ( 'UNKNOWN', '', #133, #172 ) ;
#113 = AXIS2_PLACEMENT_3D ( 'NONE', #37, #243, #3 ) ;
#114 = EDGE_LOOP ( 'NONE', ( #224 ) ) ;
#115 = EDGE_LOOP ( 'NONE', ( #162 ) ) ;
#116 = CARTESIAN_POINT ( 'NONE',  ( 1.326762908760390675E-13, 1.599999999999997202, 38.00000000000000711 ) ) ;
#117 = PLANE ( 'NONE',  #223 ) ;
#118 = CLOSED_SHELL ( 'NONE', ( #79, #32, #70 ) ) ;
#119 = VERTEX_POINT ( 'NONE', #208 ) ;
#120 = DIRECTION ( 'NONE',  ( 4.275831445896958607E-31, 1.000000000000000000, 1.224646799147353207E-16 ) ) ;
#121 = DIRECTION ( 'NONE',  ( 1.000000000000000000, 0.0000000000000000000, 0.0000000000000000000 ) ) ;
#122 = FACE_OUTER_BOUND ( 'NONE', #225, .T. ) ;
#123 = APPROVAL_DATE_TIME ( #5, #108 ) ;
#124 = AXIS2_PLACEMENT_3D ( 'NONE', #73, #188, #164 ) ;
#125 = APPLICATION_PROTOCOL_DEFINITION ( 'international standard', 'config_control_design', 1994, #111 ) ;
#126 = CC_DESIGN_DATE_AND_TIME_ASSIGNMENT ( #216, #82, ( #191 ) ) ;
#127 = AXIS2_PLACEMENT_3D ( 'NONE', #145, #200, #27 ) ;
#128 = AXIS2_PLACEMENT_3D ( 'NONE', #101, #104, #236 ) ;
#129 = APPROVAL_DATE_TIME ( #110, #212 ) ;
#130 = EDGE_LOOP ( 'NONE', ( #9 ) ) ;
#131 = EDGE_LOOP ( 'NONE', ( #204 ) ) ;
#132 = PRODUCT_RELATED_PRODUCT_CATEGORY ( 'detail', '', ( #19 ) ) ;
#133 = PRODUCT_DEFINITION_FORMATION_WITH_SPECIFIED_SOURCE ( 'ANY', '', #19, .NOT_KNOWN. ) ;
#134 = VERTEX_POINT ( 'NONE', #210 ) ;
#135 = DIRECTION ( 'NONE',  ( 1.000000000000000000, 0.0000000000000000000, -3.336006684570784876E-15 ) ) ;
#136 = DIRECTION ( 'NONE',  ( 3.491481338843133355E-15, -0.0000000000000000000, 1.000000000000000000 ) ) ;
#137 = CYLINDRICAL_SURFACE ( 'NONE', #10, 2.000000000000000000 ) ;
#138 = CARTESIAN_POINT ( 'NONE',  ( 1.326762908760390675E-13, -4.653657836759942730E-15, 38.00000000000000711 ) ) ;
#139 = APPROVAL_PERSON_ORGANIZATION ( #220, #108, #235 ) ;
#140 = APPROVAL_ROLE ( '' ) ;
#141 = CIRCLE ( 'NONE', #147, 0.6499999999999995781 ) ;
#142 = PERSON_AND_ORGANIZATION ( #39, #180 ) ;
#143 = ADVANCED_FACE ( 'NONE', ( #74, #157 ), #52, .T. ) ;
#144 = APPROVAL_ROLE ( '' ) ;
#145 = CARTESIAN_POINT ( 'NONE',  ( -1.710332578358783092E-30, 0.0000000000000000000, -4.898587196589412829E-16 ) ) ;
#146 = ORIENTED_EDGE ( 'NONE', *, *, #62, .T. ) ;
#147 = AXIS2_PLACEMENT_3D ( 'NONE', #12, #136, #135 ) ;
#148 = EDGE_LOOP ( 'NONE', ( #205 ) ) ;
#149 = EDGE_CURVE ( 'NONE', #134, #134, #15, .T. ) ;
#150 = ORIENTED_EDGE ( 'NONE', *, *, #197, .T. ) ;
#151 = CARTESIAN_POINT ( 'NONE',  ( 2.828649298866377426E-14, 0.0000000000000000000, 8.101573585392902288 ) ) ;
#152 = CIRCLE ( 'NONE', #127, 0.6500000000000000222 ) ;
#153 = FACE_OUTER_BOUND ( 'NONE', #67, .T. ) ;
#154 = ADVANCED_FACE ( 'NONE', ( #57, #186 ), #137, .T. ) ;
#155 = DIRECTION ( 'NONE',  ( 0.0000000000000000000, 1.000000000000000000, 0.0000000000000000000 ) ) ;
#156 = DIRECTION ( 'NONE',  ( 3.491481338843133355E-15, -1.224646799147353207E-16, 1.000000000000000000 ) ) ;
#157 = FACE_OUTER_BOUND ( 'NONE', #148, .T. ) ;
#158 = VERTEX_POINT ( 'NONE', #106 ) ;
#159 = PERSON_AND_ORGANIZATION ( #39, #180 ) ;
#160 = APPROVAL_DATE_TIME ( #44, #163 ) ;
#161 = COORDINATED_UNIVERSAL_TIME_OFFSET ( 1, 0, .AHEAD. ) ;
#162 = ORIENTED_EDGE ( 'NONE', *, *, #14, .T. ) ;
#163 = APPROVAL ( #45, 'UNSPECIFIED' ) ;
#164 = DIRECTION ( 'NONE',  ( 0.0000000000000000000, 1.000000000000000000, 0.0000000000000000000 ) ) ;
#165 = CC_DESIGN_PERSON_AND_ORGANIZATION_ASSIGNMENT ( #176, #100, ( #191 ) ) ;
#166 = CARTESIAN_POINT ( 'NONE',  ( 0.6500000000000000222, 0.0000000000000000000, -2.759321589906978062E-15 ) ) ;
#167 = PLANE ( 'NONE',  #226 ) ;
#168 = CC_DESIGN_DATE_AND_TIME_ASSIGNMENT ( #218, #23, ( #112 ) ) ;
#169 = DIRECTION ( 'NONE',  ( 3.491481338843133355E-15, -0.0000000000000000000, 1.000000000000000000 ) ) ;
#170 = LOCAL_TIME ( 9, 6, 0.0000000000000000000, #61 ) ;
#171 =( NAMED_UNIT ( * ) PLANE_ANGLE_UNIT ( ) SI_UNIT ( $, .RADIAN. ) );
#172 = DESIGN_CONTEXT ( 'detailed design', #111, 'design' ) ;
#173 = LOCAL_TIME ( 9, 6, 0.0000000000000000000, #161 ) ;
#174 = PERSON_AND_ORGANIZATION ( #39, #180 ) ;
#175 = CARTESIAN_POINT ( 'NONE',  ( 0.0000000000000000000, 0.0000000000000000000, 0.0000000000000000000 ) ) ;
#176 = PERSON_AND_ORGANIZATION ( #39, #180 ) ;
#177 =( GEOMETRIC_REPRESENTATION_CONTEXT ( 3 ) GLOBAL_UNCERTAINTY_ASSIGNED_CONTEXT ( ( #21 ) ) GLOBAL_UNIT_ASSIGNED_CONTEXT ( ( #99, #171, #85 ) ) REPRESENTATION_CONTEXT ( 'NONE', 'WORKASPACE' ) );
#178 = COORDINATED_UNIVERSAL_TIME_OFFSET ( 1, 0, .AHEAD. ) ;
#179 = EDGE_CURVE ( 'NONE', #36, #36, #232, .T. ) ;
#180 = ORGANIZATION ( 'UNSPECIFIED', 'UNSPECIFIED', '' ) ;
#181 = EDGE_LOOP ( 'NONE', ( #29 ) ) ;
#182 = DIRECTION ( 'NONE',  ( -3.491481338843133355E-15, 1.224646799147353207E-16, -1.000000000000000000 ) ) ;
#183 = CARTESIAN_POINT ( 'NONE',  ( 9.776147748760771817E-15, -6.071532165918823844E-16, 2.799999999999999378 ) ) ;
#184 = VERTEX_POINT ( 'NONE', #192 ) ;
#185 = DIRECTION ( 'NONE',  ( 3.491481338843133355E-15, -0.0000000000000000000, 1.000000000000000000 ) ) ;
#186 = FACE_OUTER_BOUND ( 'NONE', #131, .T. ) ;
#187 = AXIS2_PLACEMENT_3D ( 'NONE', #92, #169, #77 ) ;
#188 = DIRECTION ( 'NONE',  ( -3.491481338843133355E-15, 1.224646799147353207E-16, -1.000000000000000000 ) ) ;
#189 = DIRECTION ( 'NONE',  ( -3.491481338843133355E-15, 1.224646799147353207E-16, -1.000000000000000000 ) ) ;
#190 = ADVANCED_FACE ( 'NONE', ( #17 ), #167, .F. ) ;
#191 = SECURITY_CLASSIFICATION ( '', '', #6 ) ;
#192 = CARTESIAN_POINT ( 'NONE',  ( 0.6500000000000093481, 0.0000000000000000000, 2.799999999999996270 ) ) ;
#193 = ADVANCED_FACE ( 'NONE', ( #16, #54 ), #4, .F. ) ;
#194 = MECHANICAL_CONTEXT ( 'NONE', #95, 'mechanical' ) ;
#195 = ADVANCED_BREP_SHAPE_REPRESENTATION ( '334953', ( #241, #238, #237 ), #177 ) ;
#196 = CYLINDRICAL_SURFACE ( 'NONE', #128, 0.6499999999999998002 ) ;
#197 = EDGE_CURVE ( 'NONE', #184, #184, #7, .T. ) ;
#198 = FACE_OUTER_BOUND ( 'NONE', #115, .T. ) ;
#199 = PERSON_AND_ORGANIZATION ( #39, #180 ) ;
#200 = DIRECTION ( 'NONE',  ( 3.491481338843133355E-15, -0.0000000000000000000, 1.000000000000000000 ) ) ;
#201 = AXIS2_PLACEMENT_3D ( 'NONE', #96, #88, #230 ) ;
#202 = PERSON_AND_ORGANIZATION_ROLE ( 'creator' ) ;
#203 = EDGE_CURVE ( 'NONE', #158, #158, #141, .T. ) ;
#204 = ORIENTED_EDGE ( 'NONE', *, *, #87, .T. ) ;
#205 = ORIENTED_EDGE ( 'NONE', *, *, #149, .F. ) ;
#206 = CC_DESIGN_SECURITY_CLASSIFICATION ( #191, ( #133 ) ) ;
#207 = ORIENTED_EDGE ( 'NONE', *, *, #179, .T. ) ;
#208 = CARTESIAN_POINT ( 'NONE',  ( 2.000000000000028422, 0.0000000000000000000, 8.101573585392895183 ) ) ;
#209 = VERTEX_POINT ( 'NONE', #166 ) ;
#210 = CARTESIAN_POINT ( 'NONE',  ( 1.312796983405018394E-13, 1.999999999999994893, 37.60000000000000853 ) ) ;
#211 = CIRCLE ( 'NONE', #113, 0.7181483474218599561 ) ;
#212 = APPROVAL ( #26, 'UNSPECIFIED' ) ;
#213 = CARTESIAN_POINT ( 'NONE',  ( 0.0000000000000000000, 0.0000000000000000000, 0.0000000000000000000 ) ) ;
#214 = LOCAL_TIME ( 9, 6, 0.0000000000000000000, #20 ) ;
#215 = DIRECTION ( 'NONE',  ( 0.0000000000000000000, 0.0000000000000000000, 1.000000000000000000 ) ) ;
#216 = DATE_AND_TIME ( #43, #107 ) ;
#217 = CC_DESIGN_PERSON_AND_ORGANIZATION_ASSIGNMENT ( #24, #234, ( #133 ) ) ;
#218 = DATE_AND_TIME ( #105, #214 ) ;
#219 = LOCAL_TIME ( 9, 6, 0.0000000000000000000, #178 ) ;
#220 = PERSON_AND_ORGANIZATION ( #39, #180 ) ;
#221 = PERSON_AND_ORGANIZATION_ROLE ( 'design_owner' ) ;
#222 = CC_DESIGN_PERSON_AND_ORGANIZATION_ASSIGNMENT ( #142, #221, ( #19 ) ) ;
#223 = AXIS2_PLACEMENT_3D ( 'NONE', #75, #182, #231 ) ;
#224 = ORIENTED_EDGE ( 'NONE', *, *, #203, .F. ) ;
#225 = EDGE_LOOP ( 'NONE', ( #51 ) ) ;
#226 = AXIS2_PLACEMENT_3D ( 'NONE', #2, #90, #229 ) ;
#227 = DIRECTION ( 'NONE',  ( -3.491481338843133355E-15, 1.224646799147353207E-16, -1.000000000000000000 ) ) ;
#228 = EDGE_LOOP ( 'NONE', ( #207 ) ) ;
#229 = DIRECTION ( 'NONE',  ( 4.275831445896958607E-31, 1.000000000000000000, 1.224646799147353207E-16 ) ) ;
#230 = DIRECTION ( 'NONE',  ( 1.000000000000000000, 0.0000000000000000000, -3.491481338843133355E-15 ) ) ;
#231 = DIRECTION ( 'NONE',  ( 4.275831445896958607E-31, 1.000000000000000000, 1.224646799147353207E-16 ) ) ;
#232 = CIRCLE ( 'NONE', #28, 1.600000000000001865 ) ;
#233 = CC_DESIGN_PERSON_AND_ORGANIZATION_ASSIGNMENT ( #30, #202, ( #112 ) ) ;
#234 = PERSON_AND_ORGANIZATION_ROLE ( 'creator' ) ;
#235 = APPROVAL_ROLE ( '' ) ;
#236 = DIRECTION ( 'NONE',  ( 1.000000000000000000, 0.0000000000000000000, -3.491481338843133355E-15 ) ) ;
#237 = AXIS2_PLACEMENT_3D ( 'NONE', #175, #215, #121 ) ;
#238 = MANIFOLD_SOLID_BREP ( 'Corps-Déplacer/Copier1[2]', #118 ) ;
#239 = DIRECTION ( 'NONE',  ( 3.491481338843133355E-15, -1.224646799147353207E-16, 1.000000000000000000 ) ) ;
#240 = ORIENTED_EDGE ( 'NONE', *, *, #62, .F. ) ;
#241 = MANIFOLD_SOLID_BREP ( 'Corps-Déplacer/Copier1[1]', #68 ) ;
#242 = DIRECTION ( 'NONE',  ( 1.000000000000000000, 0.0000000000000000000, -3.469446951953614189E-15 ) ) ;
#243 = DIRECTION ( 'NONE',  ( 3.491481338843133355E-15, -0.0000000000000000000, 1.000000000000000000 ) ) ;
ENDSEC;
END-ISO-10303-21;
