ISO-10303-21;
HEADER;
FILE_DESCRIPTION (( 'STEP AP203' ),
    '1' );
FILE_NAME ('334952.step',
    '2021-11-15T08:05:59',
    ( '' ),
    ( '' ),
    'SwSTEP 2.0',
    'SolidWorks 2019',
    '' );
FILE_SCHEMA (( 'CONFIG_CONTROL_DESIGN' ));
ENDSEC;

DATA;
#1 = VERTEX_POINT ( 'NONE', #17 ) ;
#2 = CALENDAR_DATE ( 2021, 15, 11 ) ;
#3 = AXIS2_PLACEMENT_3D ( 'NONE', #158, #139, #48 ) ;
#4 = FACE_OUTER_BOUND ( 'NONE', #64, .T. ) ;
#5 = EDGE_CURVE ( 'NONE', #199, #199, #113, .T. ) ;
#6 = APPROVAL_DATE_TIME ( #173, #183 ) ;
#7 = CIRCLE ( 'NONE', #39, 0.5999999999999994227 ) ;
#8 = ORIENTED_EDGE ( 'NONE', *, *, #130, .T. ) ;
#9 = EDGE_LOOP ( 'NONE', ( #176 ) ) ;
#10 = AXIS2_PLACEMENT_3D ( 'NONE', #120, #194, #212 ) ;
#11 = CARTESIAN_POINT ( 'NONE',  ( 0.6681483474218702368, 0.0000000000000000000, 3.117638090205025581 ) ) ;
#12 = CARTESIAN_POINT ( 'NONE',  ( 1.312796983405018394E-13, -4.604671964794048513E-15, 37.60000000000000853 ) ) ;
#13 = DIRECTION ( 'NONE',  ( 0.0000000000000000000, 1.000000000000000000, 0.0000000000000000000 ) ) ;
#14 = APPROVAL ( #193, 'UNSPECIFIED' ) ;
#15 = CARTESIAN_POINT ( 'NONE',  ( 9.077851480992141991E-15, 0.0000000000000000000, 2.599999999999998757 ) ) ;
#16 = CARTESIAN_POINT ( 'NONE',  ( 5.430048750889028273E-14, 0.0000000000000000000, 15.55227774090930559 ) ) ;
#17 = CARTESIAN_POINT ( 'NONE',  ( 0.5999999999999998668, 0.0000000000000000000, -2.584747522964820606E-15 ) ) ;
#18 = SECURITY_CLASSIFICATION_LEVEL ( 'unclassified' ) ;
#19 = CIRCLE ( 'NONE', #84, 2.000000000000000000 ) ;
#20 = DIRECTION ( 'NONE',  ( 1.000000000000000000, 0.0000000000000000000, 0.0000000000000000000 ) ) ;
#21 = PERSON_AND_ORGANIZATION ( #86, #186 ) ;
#22 = COORDINATED_UNIVERSAL_TIME_OFFSET ( 1, 0, .AHEAD. ) ;
#23 = CALENDAR_DATE ( 2021, 15, 11 ) ;
#24 = ORIENTED_EDGE ( 'NONE', *, *, #93, .F. ) ;
#25 = ADVANCED_FACE ( 'NONE', ( #4 ), #65, .F. ) ;
#26 = EDGE_LOOP ( 'NONE', ( #108 ) ) ;
#27 = FACE_OUTER_BOUND ( 'NONE', #161, .T. ) ;
#28 = FACE_OUTER_BOUND ( 'NONE', #213, .T. ) ;
#29 = ORIENTED_EDGE ( 'NONE', *, *, #5, .F. ) ;
#30 = CARTESIAN_POINT ( 'NONE',  ( 2.823971600840723660E-14, 0.0000000000000000000, 8.088176125771354918 ) ) ;
#31 = DESIGN_CONTEXT ( 'detailed design', #118, 'design' ) ;
#32 = FACE_OUTER_BOUND ( 'NONE', #163, .T. ) ;
#33 = VERTEX_POINT ( 'NONE', #219 ) ;
#34 = AXIS2_PLACEMENT_3D ( 'NONE', #16, #131, #203 ) ;
#35 = CC_DESIGN_APPROVAL ( #183, ( #110 ) ) ;
#36 = FACE_OUTER_BOUND ( 'NONE', #157, .T. ) ;
#37 = ADVANCED_FACE ( 'NONE', ( #27, #205 ), #52, .T. ) ;
#38 = VERTEX_POINT ( 'NONE', #210 ) ;
#39 = AXIS2_PLACEMENT_3D ( 'NONE', #53, #207, #71 ) ;
#40 = VERTEX_POINT ( 'NONE', #224 ) ;
#41 = PERSON_AND_ORGANIZATION ( #86, #186 ) ;
#42 = PERSON_AND_ORGANIZATION ( #86, #186 ) ;
#43 = AXIS2_PLACEMENT_3D ( 'NONE', #202, #70, #13 ) ;
#44 = COORDINATED_UNIVERSAL_TIME_OFFSET ( 1, 0, .AHEAD. ) ;
#45 = LOCAL_TIME ( 9, 5, 59.00000000000000000, #132 ) ;
#46 = ADVANCED_FACE ( 'NONE', ( #92, #187 ), #149, .T. ) ;
#47 = ORIENTED_EDGE ( 'NONE', *, *, #156, .F. ) ;
#48 = DIRECTION ( 'NONE',  ( 1.000000000000000000, 0.0000000000000000000, -3.245393561681458416E-15 ) ) ;
#49 = FACE_OUTER_BOUND ( 'NONE', #66, .T. ) ;
#50 = CIRCLE ( 'NONE', #190, 1.600000000000001865 ) ;
#51 = DIRECTION ( 'NONE',  ( 3.491481338843133355E-15, -0.0000000000000000000, 1.000000000000000000 ) ) ;
#52 = CYLINDRICAL_SURFACE ( 'NONE', #171, 0.5999999999999996447 ) ;
#53 = CARTESIAN_POINT ( 'NONE',  ( 9.077851480992141991E-15, 0.0000000000000000000, 2.599999999999998757 ) ) ;
#54 = CC_DESIGN_SECURITY_CLASSIFICATION ( #135, ( #60 ) ) ;
#55 = VERTEX_POINT ( 'NONE', #236 ) ;
#56 = APPLICATION_CONTEXT ( 'configuration controlled 3d designs of mechanical parts and assemblies' ) ;
#57 =( NAMED_UNIT ( * ) SI_UNIT ( $, .STERADIAN. ) SOLID_ANGLE_UNIT ( ) );
#58 = DIRECTION ( 'NONE',  ( 0.0000000000000000000, 0.0000000000000000000, 1.000000000000000000 ) ) ;
#59 = APPROVAL_ROLE ( '' ) ;
#60 = PRODUCT_DEFINITION_FORMATION_WITH_SPECIFIED_SOURCE ( 'ANY', '', #115, .NOT_KNOWN. ) ;
#61 = CC_DESIGN_PERSON_AND_ORGANIZATION_ASSIGNMENT ( #228, #192, ( #135 ) ) ;
#62 = DATE_AND_TIME ( #2, #123 ) ;
#63 = CALENDAR_DATE ( 2021, 15, 11 ) ;
#64 = EDGE_LOOP ( 'NONE', ( #196 ) ) ;
#65 = PLANE ( 'NONE',  #10 ) ;
#66 = EDGE_LOOP ( 'NONE', ( #122 ) ) ;
#67 = ORIENTED_EDGE ( 'NONE', *, *, #156, .T. ) ;
#68 = AXIS2_PLACEMENT_3D ( 'NONE', #220, #182, #240 ) ;
#69 = CC_DESIGN_APPROVAL ( #14, ( #135 ) ) ;
#70 = DIRECTION ( 'NONE',  ( -3.491481338843133355E-15, 1.224646799147353207E-16, -1.000000000000000000 ) ) ;
#71 = DIRECTION ( 'NONE',  ( 1.000000000000000000, 0.0000000000000000000, -3.614007241618351532E-15 ) ) ;
#72 = CC_DESIGN_APPROVAL ( #160, ( #60 ) ) ;
#73 = CARTESIAN_POINT ( 'NONE',  ( 0.0000000000000000000, 0.0000000000000000000, 0.0000000000000000000 ) ) ;
#74 = ADVANCED_FACE ( 'NONE', ( #36, #147 ), #144, .F. ) ;
#75 = DIRECTION ( 'NONE',  ( 0.0000000000000000000, 1.000000000000000000, 0.0000000000000000000 ) ) ;
#76 = MANIFOLD_SOLID_BREP ( 'Corps-Déplacer/Copier1[2]', #184 ) ;
#77 = VERTEX_POINT ( 'NONE', #87 ) ;
#78 = CARTESIAN_POINT ( 'NONE',  ( 1.326762908760390675E-13, -4.653657836759942730E-15, 38.00000000000000711 ) ) ;
#79 = PRODUCT_RELATED_PRODUCT_CATEGORY ( 'detail', '', ( #115 ) ) ;
#80 = PERSON_AND_ORGANIZATION_ROLE ( 'design_owner' ) ;
#81 = PERSON_AND_ORGANIZATION_ROLE ( 'creator' ) ;
#82 = LOCAL_TIME ( 9, 5, 59.00000000000000000, #170 ) ;
#83 = APPROVAL_STATUS ( 'not_yet_approved' ) ;
#84 = AXIS2_PLACEMENT_3D ( 'NONE', #30, #237, #128 ) ;
#85 = EDGE_LOOP ( 'NONE', ( #29 ) ) ;
#86 = PERSON ( 'UNSPECIFIED', 'UNSPECIFIED', 'UNSPECIFIED', ('UNSPECIFIED'), ('UNSPECIFIED'), ('UNSPECIFIED') ) ;
#87 = CARTESIAN_POINT ( 'NONE',  ( 0.6000000000000085265, 0.0000000000000000000, 2.599999999999996536 ) ) ;
#88 = CARTESIAN_POINT ( 'NONE',  ( -1.710332578358783092E-30, 0.0000000000000000000, -4.898587196589412829E-16 ) ) ;
#89 = ADVANCED_FACE ( 'NONE', ( #32, #49 ), #162, .T. ) ;
#90 = DIRECTION ( 'NONE',  ( 3.491481338843133355E-15, -0.0000000000000000000, 1.000000000000000000 ) ) ;
#91 = CLOSED_SHELL ( 'NONE', ( #89, #101, #25, #74, #46, #204 ) ) ;
#92 = FACE_OUTER_BOUND ( 'NONE', #105, .T. ) ;
#93 = EDGE_CURVE ( 'NONE', #33, #33, #7, .T. ) ;
#94 = CARTESIAN_POINT ( 'NONE',  ( 0.0000000000000000000, 0.0000000000000000000, 0.0000000000000000000 ) ) ;
#95 = APPLICATION_PROTOCOL_DEFINITION ( 'international standard', 'config_control_design', 1994, #56 ) ;
#96 = DATE_TIME_ROLE ( 'creation_date' ) ;
#97 = PERSON_AND_ORGANIZATION_ROLE ( 'design_supplier' ) ;
#98 = CC_DESIGN_PERSON_AND_ORGANIZATION_ASSIGNMENT ( #209, #119, ( #60 ) ) ;
#99 = DATE_TIME_ROLE ( 'classification_date' ) ;
#100 = AXIS2_PLACEMENT_3D ( 'NONE', #94, #181, #111 ) ;
#101 = ADVANCED_FACE ( 'NONE', ( #167, #218 ), #107, .T. ) ;
#102 = ORIENTED_EDGE ( 'NONE', *, *, #169, .T. ) ;
#103 = ADVANCED_FACE ( 'NONE', ( #106 ), #112, .T. ) ;
#104 = ORIENTED_EDGE ( 'NONE', *, *, #114, .T. ) ;
#105 = EDGE_LOOP ( 'NONE', ( #233 ) ) ;
#106 = FACE_OUTER_BOUND ( 'NONE', #197, .T. ) ;
#107 = CONICAL_SURFACE ( 'NONE', #221, 1.999999999999999556, 0.7853981633974485010 ) ;
#108 = ORIENTED_EDGE ( 'NONE', *, *, #130, .F. ) ;
#109 = PLANE ( 'NONE',  #159 ) ;
#110 = PRODUCT_DEFINITION ( 'UNKNOWN', '', #60, #31 ) ;
#111 = DIRECTION ( 'NONE',  ( 4.275831445896958607E-31, 1.000000000000000000, 1.224646799147353207E-16 ) ) ;
#112 = PLANE ( 'NONE',  #68 ) ;
#113 = CIRCLE ( 'NONE', #3, 0.6681483474218594676 ) ;
#114 = EDGE_CURVE ( 'NONE', #77, #77, #175, .T. ) ;
#115 = PRODUCT ( '334952', '334952', '', ( #133 ) ) ;
#116 = DATE_AND_TIME ( #23, #198 ) ;
#117 =( NAMED_UNIT ( * ) PLANE_ANGLE_UNIT ( ) SI_UNIT ( $, .RADIAN. ) );
#118 = APPLICATION_CONTEXT ( 'configuration controlled 3d designs of mechanical parts and assemblies' ) ;
#119 = PERSON_AND_ORGANIZATION_ROLE ( 'creator' ) ;
#120 = CARTESIAN_POINT ( 'NONE',  ( 1.326762908760390675E-13, -8.377713426430119900E-31, 38.00000000000000711 ) ) ;
#121 = EDGE_LOOP ( 'NONE', ( #47 ) ) ;
#122 = ORIENTED_EDGE ( 'NONE', *, *, #208, .T. ) ;
#123 = LOCAL_TIME ( 9, 5, 59.00000000000000000, #44 ) ;
#124 = CARTESIAN_POINT ( 'NONE',  ( -4.275831445896957731E-31, 1.499759782661857608E-32, -1.224646799147353207E-16 ) ) ;
#125 = DIRECTION ( 'NONE',  ( 1.000000000000000000, 0.0000000000000000000, -3.614007241618351532E-15 ) ) ;
#126 = UNCERTAINTY_MEASURE_WITH_UNIT (LENGTH_MEASURE( 1.000000000000000082E-05 ), #188, 'distance_accuracy_value', 'NONE');
#127 = AXIS2_PLACEMENT_3D ( 'NONE', #88, #90, #206 ) ;
#128 = DIRECTION ( 'NONE',  ( 1.000000000000000000, 0.0000000000000000000, -3.469446951953614189E-15 ) ) ;
#129 = DIRECTION ( 'NONE',  ( -3.491481338843133355E-15, 1.224646799147353207E-16, -1.000000000000000000 ) ) ;
#130 = EDGE_CURVE ( 'NONE', #55, #55, #235, .T. ) ;
#131 = DIRECTION ( 'NONE',  ( 3.491481338843133355E-15, -0.0000000000000000000, 1.000000000000000000 ) ) ;
#132 = COORDINATED_UNIVERSAL_TIME_OFFSET ( 1, 0, .AHEAD. ) ;
#133 = MECHANICAL_CONTEXT ( 'NONE', #56, 'mechanical' ) ;
#134 = CALENDAR_DATE ( 2021, 15, 11 ) ;
#135 = SECURITY_CLASSIFICATION ( '', '', #18 ) ;
#136 = PERSON_AND_ORGANIZATION ( #86, #186 ) ;
#137 = APPROVAL_DATE_TIME ( #191, #160 ) ;
#138 = DATE_AND_TIME ( #63, #82 ) ;
#139 = DIRECTION ( 'NONE',  ( 3.491481338843133355E-15, -0.0000000000000000000, 1.000000000000000000 ) ) ;
#140 = CC_DESIGN_PERSON_AND_ORGANIZATION_ASSIGNMENT ( #21, #97, ( #60 ) ) ;
#141 = APPROVAL_PERSON_ORGANIZATION ( #136, #183, #59 ) ;
#142 = DIRECTION ( 'NONE',  ( 1.000000000000000000, 0.0000000000000000000, -3.491481338843132961E-15 ) ) ;
#143 = DIRECTION ( 'NONE',  ( 3.491481338843133355E-15, -0.0000000000000000000, 1.000000000000000000 ) ) ;
#144 = TOROIDAL_SURFACE ( 'NONE', #201, 2.599999999999999645, 2.000000000000000000 ) ;
#145 = DIRECTION ( 'NONE',  ( 3.491481338843133355E-15, -0.0000000000000000000, 1.000000000000000000 ) ) ;
#146 = DIRECTION ( 'NONE',  ( -4.275831445896958607E-31, -1.000000000000000000, -1.224646799147353207E-16 ) ) ;
#147 = FACE_OUTER_BOUND ( 'NONE', #85, .T. ) ;
#148 = DIRECTION ( 'NONE',  ( 0.0000000000000000000, 1.000000000000000000, 0.0000000000000000000 ) ) ;
#149 = CONICAL_SURFACE ( 'NONE', #34, 4.000000000000000000, 0.2617993877991428020 ) ;
#150 = CARTESIAN_POINT ( 'NONE',  ( 0.0000000000000000000, 0.0000000000000000000, 0.0000000000000000000 ) ) ;
#151 = APPLICATION_PROTOCOL_DEFINITION ( 'international standard', 'config_control_design', 1994, #118 ) ;
#152 = APPROVAL_PERSON_ORGANIZATION ( #41, #160, #211 ) ;
#153 = APPROVAL_STATUS ( 'not_yet_approved' ) ;
#154 = APPROVAL_DATE_TIME ( #138, #14 ) ;
#155 = CIRCLE ( 'NONE', #127, 0.5999999999999998668 ) ;
#156 = EDGE_CURVE ( 'NONE', #1, #1, #155, .T. ) ;
#157 = EDGE_LOOP ( 'NONE', ( #200 ) ) ;
#158 = CARTESIAN_POINT ( 'NONE',  ( 1.088517521321739995E-14, 0.0000000000000000000, 3.117638090205027801 ) ) ;
#159 = AXIS2_PLACEMENT_3D ( 'NONE', #124, #239, #180 ) ;
#160 = APPROVAL ( #153, 'UNSPECIFIED' ) ;
#161 = EDGE_LOOP ( 'NONE', ( #67 ) ) ;
#162 = CYLINDRICAL_SURFACE ( 'NONE', #100, 2.000000000000000000 ) ;
#163 = EDGE_LOOP ( 'NONE', ( #8 ) ) ;
#164 = CARTESIAN_POINT ( 'NONE',  ( 9.077851480992146724E-15, -5.637851296924622071E-16, 2.600000000000000089 ) ) ;
#165 = FACE_OUTER_BOUND ( 'NONE', #121, .T. ) ;
#166 = PLANE ( 'NONE',  #179 ) ;
#167 = FACE_BOUND ( 'NONE', #232, .T. ) ;
#168 = APPROVAL_ROLE ( '' ) ;
#169 = EDGE_CURVE ( 'NONE', #38, #38, #50, .T. ) ;
#170 = COORDINATED_UNIVERSAL_TIME_OFFSET ( 1, 0, .AHEAD. ) ;
#171 = AXIS2_PLACEMENT_3D ( 'NONE', #73, #145, #142 ) ;
#172 = LOCAL_TIME ( 9, 5, 59.00000000000000000, #225 ) ;
#173 = DATE_AND_TIME ( #223, #45 ) ;
#174 = CC_DESIGN_PERSON_AND_ORGANIZATION_ASSIGNMENT ( #243, #80, ( #115 ) ) ;
#175 = CIRCLE ( 'NONE', #231, 0.5999999999999994227 ) ;
#176 = ORIENTED_EDGE ( 'NONE', *, *, #5, .T. ) ;
#177 = CC_DESIGN_DATE_AND_TIME_ASSIGNMENT ( #62, #96, ( #110 ) ) ;
#178 = ORIENTED_EDGE ( 'NONE', *, *, #114, .F. ) ;
#179 = AXIS2_PLACEMENT_3D ( 'NONE', #164, #222, #146 ) ;
#180 = DIRECTION ( 'NONE',  ( 4.275831445896958607E-31, 1.000000000000000000, 1.224646799147353207E-16 ) ) ;
#181 = DIRECTION ( 'NONE',  ( -3.491481338843133355E-15, 1.224646799147353207E-16, -1.000000000000000000 ) ) ;
#182 = DIRECTION ( 'NONE',  ( 3.491481338843133355E-15, -1.224646799147353207E-16, 1.000000000000000000 ) ) ;
#183 = APPROVAL ( #83, 'UNSPECIFIED' ) ;
#184 = CLOSED_SHELL ( 'NONE', ( #103, #37, #226 ) ) ;
#185 = CARTESIAN_POINT ( 'NONE',  ( 9.077851480992143568E-15, 0.0000000000000000000, 2.599999999999999201 ) ) ;
#186 = ORGANIZATION ( 'UNSPECIFIED', 'UNSPECIFIED', '' ) ;
#187 = FACE_BOUND ( 'NONE', #9, .T. ) ;
#188 =( LENGTH_UNIT ( ) NAMED_UNIT ( * ) SI_UNIT ( .MILLI., .METRE. ) );
#189 = PERSON_AND_ORGANIZATION ( #86, #186 ) ;
#190 = AXIS2_PLACEMENT_3D ( 'NONE', #78, #129, #148 ) ;
#191 = DATE_AND_TIME ( #134, #172 ) ;
#192 = PERSON_AND_ORGANIZATION_ROLE ( 'classification_officer' ) ;
#193 = APPROVAL_STATUS ( 'not_yet_approved' ) ;
#194 = DIRECTION ( 'NONE',  ( -3.491481338843133355E-15, 1.224646799147353207E-16, -1.000000000000000000 ) ) ;
#195 = CC_DESIGN_PERSON_AND_ORGANIZATION_ASSIGNMENT ( #189, #81, ( #110 ) ) ;
#196 = ORIENTED_EDGE ( 'NONE', *, *, #169, .F. ) ;
#197 = EDGE_LOOP ( 'NONE', ( #104 ) ) ;
#198 = LOCAL_TIME ( 9, 5, 59.00000000000000000, #22 ) ;
#199 = VERTEX_POINT ( 'NONE', #11 ) ;
#200 = ORIENTED_EDGE ( 'NONE', *, *, #93, .T. ) ;
#201 = AXIS2_PLACEMENT_3D ( 'NONE', #185, #143, #217 ) ;
#202 = CARTESIAN_POINT ( 'NONE',  ( 1.312796983405018394E-13, -4.604671964794048513E-15, 37.60000000000000853 ) ) ;
#203 = DIRECTION ( 'NONE',  ( 1.000000000000000000, 0.0000000000000000000, -3.469446951953614189E-15 ) ) ;
#204 = ADVANCED_FACE ( 'NONE', ( #28 ), #166, .F. ) ;
#205 = FACE_OUTER_BOUND ( 'NONE', #215, .T. ) ;
#206 = DIRECTION ( 'NONE',  ( 1.000000000000000000, 0.0000000000000000000, -3.491481338843132961E-15 ) ) ;
#207 = DIRECTION ( 'NONE',  ( 3.491481338843133355E-15, -0.0000000000000000000, 1.000000000000000000 ) ) ;
#208 = EDGE_CURVE ( 'NONE', #40, #40, #19, .T. ) ;
#209 = PERSON_AND_ORGANIZATION ( #86, #186 ) ;
#210 = CARTESIAN_POINT ( 'NONE',  ( 1.326762908760390675E-13, 1.599999999999997202, 38.00000000000000711 ) ) ;
#211 = APPROVAL_ROLE ( '' ) ;
#212 = DIRECTION ( 'NONE',  ( 4.275831445896958607E-31, 1.000000000000000000, 1.224646799147353207E-16 ) ) ;
#213 = EDGE_LOOP ( 'NONE', ( #24 ) ) ;
#214 = AXIS2_PLACEMENT_3D ( 'NONE', #150, #58, #20 ) ;
#215 = EDGE_LOOP ( 'NONE', ( #178 ) ) ;
#216 = PRODUCT_DEFINITION_SHAPE ( 'NONE', 'NONE',  #110 ) ;
#217 = DIRECTION ( 'NONE',  ( 1.000000000000000000, 0.0000000000000000000, -3.491481338843132961E-15 ) ) ;
#218 = FACE_OUTER_BOUND ( 'NONE', #26, .T. ) ;
#219 = CARTESIAN_POINT ( 'NONE',  ( 0.6000000000000085265, 0.0000000000000000000, 2.599999999999996536 ) ) ;
#220 = CARTESIAN_POINT ( 'NONE',  ( 9.077851480992146724E-15, -5.637851296924622071E-16, 2.600000000000000089 ) ) ;
#221 = AXIS2_PLACEMENT_3D ( 'NONE', #12, #241, #75 ) ;
#222 = DIRECTION ( 'NONE',  ( 3.491481338843133355E-15, -1.224646799147353207E-16, 1.000000000000000000 ) ) ;
#223 = CALENDAR_DATE ( 2021, 15, 11 ) ;
#224 = CARTESIAN_POINT ( 'NONE',  ( 2.000000000000028422, 0.0000000000000000000, 8.088176125771347813 ) ) ;
#225 = COORDINATED_UNIVERSAL_TIME_OFFSET ( 1, 0, .AHEAD. ) ;
#226 = ADVANCED_FACE ( 'NONE', ( #165 ), #109, .T. ) ;
#227 = APPROVAL_PERSON_ORGANIZATION ( #42, #14, #168 ) ;
#228 = PERSON_AND_ORGANIZATION ( #86, #186 ) ;
#229 = SHAPE_DEFINITION_REPRESENTATION ( #216, #234 ) ;
#230 = CC_DESIGN_DATE_AND_TIME_ASSIGNMENT ( #116, #99, ( #135 ) ) ;
#231 = AXIS2_PLACEMENT_3D ( 'NONE', #15, #51, #125 ) ;
#232 = EDGE_LOOP ( 'NONE', ( #102 ) ) ;
#233 = ORIENTED_EDGE ( 'NONE', *, *, #208, .F. ) ;
#234 = ADVANCED_BREP_SHAPE_REPRESENTATION ( '334952', ( #238, #76, #214 ), #242 ) ;
#235 = CIRCLE ( 'NONE', #43, 1.999999999999999556 ) ;
#236 = CARTESIAN_POINT ( 'NONE',  ( 1.312796983405018394E-13, 1.999999999999994893, 37.60000000000000853 ) ) ;
#237 = DIRECTION ( 'NONE',  ( 3.491481338843133355E-15, -0.0000000000000000000, 1.000000000000000000 ) ) ;
#238 = MANIFOLD_SOLID_BREP ( 'Corps-Déplacer/Copier1[1]', #91 ) ;
#239 = DIRECTION ( 'NONE',  ( -3.491481338843133355E-15, 1.224646799147353207E-16, -1.000000000000000000 ) ) ;
#240 = DIRECTION ( 'NONE',  ( -4.275831445896958607E-31, -1.000000000000000000, -1.224646799147353207E-16 ) ) ;
#241 = DIRECTION ( 'NONE',  ( -3.491481338843133355E-15, 1.224646799147353207E-16, -1.000000000000000000 ) ) ;
#242 =( GEOMETRIC_REPRESENTATION_CONTEXT ( 3 ) GLOBAL_UNCERTAINTY_ASSIGNED_CONTEXT ( ( #126 ) ) GLOBAL_UNIT_ASSIGNED_CONTEXT ( ( #188, #117, #57 ) ) REPRESENTATION_CONTEXT ( 'NONE', 'WORKASPACE' ) );
#243 = PERSON_AND_ORGANIZATION ( #86, #186 ) ;
ENDSEC;
END-ISO-10303-21;
