ISO-10303-21;
HEADER;
FILE_DESCRIPTION (( 'STEP AP203' ),
    '1' );
FILE_NAME ('334951.step',
    '2021-11-15T08:05:58',
    ( '' ),
    ( '' ),
    'SwSTEP 2.0',
    'SolidWorks 2019',
    '' );
FILE_SCHEMA (( 'CONFIG_CONTROL_DESIGN' ));
ENDSEC;

DATA;
#1 = PERSON ( 'UNSPECIFIED', 'UNSPECIFIED', 'UNSPECIFIED', ('UNSPECIFIED'), ('UNSPECIFIED'), ('UNSPECIFIED') ) ;
#2 = DIRECTION ( 'NONE',  ( 3.491481338843133355E-15, -0.0000000000000000000, 1.000000000000000000 ) ) ;
#3 = AXIS2_PLACEMENT_3D ( 'NONE', #57, #205, #108 ) ;
#4 = CC_DESIGN_SECURITY_CLASSIFICATION ( #130, ( #89 ) ) ;
#5 = CARTESIAN_POINT ( 'NONE',  ( -1.710332578358783092E-30, 0.0000000000000000000, -4.898587196589412829E-16 ) ) ;
#6 = CARTESIAN_POINT ( 'NONE',  ( 0.0000000000000000000, 0.0000000000000000000, 0.0000000000000000000 ) ) ;
#7 = EDGE_CURVE ( 'NONE', #78, #78, #106, .T. ) ;
#8 = CARTESIAN_POINT ( 'NONE',  ( 0.5500000000000001554, 0.0000000000000000000, -2.410173456022665516E-15 ) ) ;
#9 = VERTEX_POINT ( 'NONE', #41 ) ;
#10 = APPROVAL_DATE_TIME ( #85, #188 ) ;
#11 = EDGE_LOOP ( 'NONE', ( #101 ) ) ;
#12 = APPLICATION_PROTOCOL_DEFINITION ( 'international standard', 'config_control_design', 1994, #136 ) ;
#13 = EDGE_CURVE ( 'NONE', #9, #9, #76, .T. ) ;
#14 = PRODUCT_DEFINITION_SHAPE ( 'NONE', 'NONE',  #81 ) ;
#15 = AXIS2_PLACEMENT_3D ( 'NONE', #234, #133, #236 ) ;
#16 = FACE_BOUND ( 'NONE', #181, .T. ) ;
#17 = CC_DESIGN_DATE_AND_TIME_ASSIGNMENT ( #145, #123, ( #130 ) ) ;
#18 = FACE_OUTER_BOUND ( 'NONE', #216, .T. ) ;
#19 = FACE_BOUND ( 'NONE', #237, .T. ) ;
#20 = PLANE ( 'NONE',  #15 ) ;
#21 = FACE_OUTER_BOUND ( 'NONE', #178, .T. ) ;
#22 = DIRECTION ( 'NONE',  ( -3.491481338843133355E-15, 1.224646799147353207E-16, -1.000000000000000000 ) ) ;
#23 = ORIENTED_EDGE ( 'NONE', *, *, #86, .T. ) ;
#24 = CARTESIAN_POINT ( 'NONE',  ( 1.312796983405018394E-13, -4.604671964794048513E-15, 37.60000000000000853 ) ) ;
#25 = CC_DESIGN_APPROVAL ( #218, ( #89 ) ) ;
#26 = CARTESIAN_POINT ( 'NONE',  ( 1.312796983405018394E-13, -4.604671964794048513E-15, 37.60000000000000853 ) ) ;
#27 = APPROVAL_STATUS ( 'not_yet_approved' ) ;
#28 = ADVANCED_FACE ( 'NONE', ( #91, #35 ), #186, .T. ) ;
#29 = APPROVAL_DATE_TIME ( #182, #184 ) ;
#30 = CALENDAR_DATE ( 2021, 15, 11 ) ;
#31 = CALENDAR_DATE ( 2021, 15, 11 ) ;
#32 = APPROVAL_DATE_TIME ( #124, #218 ) ;
#33 = FACE_OUTER_BOUND ( 'NONE', #157, .T. ) ;
#34 = CARTESIAN_POINT ( 'NONE',  ( 0.0000000000000000000, 0.0000000000000000000, 0.0000000000000000000 ) ) ;
#35 = FACE_OUTER_BOUND ( 'NONE', #141, .T. ) ;
#36 = CARTESIAN_POINT ( 'NONE',  ( 2.819293902815068632E-14, 0.0000000000000000000, 8.074778666149803996 ) ) ;
#37 = ADVANCED_FACE ( 'NONE', ( #33, #16 ), #128, .T. ) ;
#38 = DIRECTION ( 'NONE',  ( 1.000000000000000000, 0.0000000000000000000, -3.491481338843133750E-15 ) ) ;
#39 = DIRECTION ( 'NONE',  ( -4.275831445896958607E-31, -1.000000000000000000, -1.224646799147353207E-16 ) ) ;
#40 = ORGANIZATION ( 'UNSPECIFIED', 'UNSPECIFIED', '' ) ;
#41 = CARTESIAN_POINT ( 'NONE',  ( 0.5500000000000080380, 0.0000000000000000000, 2.399999999999996358 ) ) ;
#42 = PLANE ( 'NONE',  #170 ) ;
#43 = AXIS2_PLACEMENT_3D ( 'NONE', #26, #208, #74 ) ;
#44 = EDGE_LOOP ( 'NONE', ( #139 ) ) ;
#45 = AXIS2_PLACEMENT_3D ( 'NONE', #129, #206, #148 ) ;
#46 = DIRECTION ( 'NONE',  ( 1.000000000000000000, 0.0000000000000000000, 0.0000000000000000000 ) ) ;
#47 = LOCAL_TIME ( 9, 5, 58.00000000000000000, #103 ) ;
#48 = ORIENTED_EDGE ( 'NONE', *, *, #86, .F. ) ;
#49 = APPROVAL_ROLE ( '' ) ;
#50 = DIRECTION ( 'NONE',  ( 3.491481338843133355E-15, -1.224646799147353207E-16, 1.000000000000000000 ) ) ;
#51 = PERSON_AND_ORGANIZATION_ROLE ( 'creator' ) ;
#52 = UNCERTAINTY_MEASURE_WITH_UNIT (LENGTH_MEASURE( 1.000000000000000082E-05 ), #217, 'distance_accuracy_value', 'NONE');
#53 = COORDINATED_UNIVERSAL_TIME_OFFSET ( 1, 0, .AHEAD. ) ;
#54 = CONICAL_SURFACE ( 'NONE', #92, 1.999999999999999556, 0.7853981633974485010 ) ;
#55 = LOCAL_TIME ( 9, 5, 58.00000000000000000, #88 ) ;
#56 = CIRCLE ( 'NONE', #213, 2.000000000000000000 ) ;
#57 = CARTESIAN_POINT ( 'NONE',  ( 8.379555213223513742E-15, 0.0000000000000000000, 2.399999999999998135 ) ) ;
#58 = VERTEX_POINT ( 'NONE', #169 ) ;
#59 = DIRECTION ( 'NONE',  ( 3.491481338843133355E-15, -0.0000000000000000000, 1.000000000000000000 ) ) ;
#60 = DIRECTION ( 'NONE',  ( 1.000000000000000000, 0.0000000000000000000, -3.491481338843133750E-15 ) ) ;
#61 = EDGE_CURVE ( 'NONE', #64, #64, #220, .T. ) ;
#62 = CARTESIAN_POINT ( 'NONE',  ( 1.312796983405018394E-13, 1.999999999999994893, 37.60000000000000853 ) ) ;
#63 = CARTESIAN_POINT ( 'NONE',  ( 8.379555213223516897E-15, -5.204170427930420297E-16, 2.399999999999999467 ) ) ;
#64 = VERTEX_POINT ( 'NONE', #93 ) ;
#65 = APPROVAL_STATUS ( 'not_yet_approved' ) ;
#66 = MANIFOLD_SOLID_BREP ( 'Corps-Déplacer/Copier1[2]', #119 ) ;
#67 = CIRCLE ( 'NONE', #200, 0.6181483474218597562 ) ;
#68 = APPROVAL_ROLE ( '' ) ;
#69 = DIRECTION ( 'NONE',  ( -4.275831445896958607E-31, -1.000000000000000000, -1.224646799147353207E-16 ) ) ;
#70 = PERSON_AND_ORGANIZATION ( #1, #40 ) ;
#71 = PRODUCT ( '334951', '334951', '', ( #242 ) ) ;
#72 = CC_DESIGN_PERSON_AND_ORGANIZATION_ASSIGNMENT ( #201, #100, ( #71 ) ) ;
#73 = AXIS2_PLACEMENT_3D ( 'NONE', #5, #115, #215 ) ;
#74 = DIRECTION ( 'NONE',  ( 0.0000000000000000000, 1.000000000000000000, 0.0000000000000000000 ) ) ;
#75 = CC_DESIGN_APPROVAL ( #184, ( #130 ) ) ;
#76 = CIRCLE ( 'NONE', #45, 0.5499999999999997113 ) ;
#77 = EDGE_CURVE ( 'NONE', #98, #98, #56, .T. ) ;
#78 = VERTEX_POINT ( 'NONE', #62 ) ;
#79 = AXIS2_PLACEMENT_3D ( 'NONE', #63, #193, #39 ) ;
#80 = VERTEX_POINT ( 'NONE', #8 ) ;
#81 = PRODUCT_DEFINITION ( 'UNKNOWN', '', #89, #104 ) ;
#82 = FACE_OUTER_BOUND ( 'NONE', #194, .T. ) ;
#83 = ORIENTED_EDGE ( 'NONE', *, *, #61, .T. ) ;
#84 = PERSON_AND_ORGANIZATION_ROLE ( 'classification_officer' ) ;
#85 = DATE_AND_TIME ( #31, #55 ) ;
#86 = EDGE_CURVE ( 'NONE', #235, #235, #67, .T. ) ;
#87 = COORDINATED_UNIVERSAL_TIME_OFFSET ( 1, 0, .AHEAD. ) ;
#88 = COORDINATED_UNIVERSAL_TIME_OFFSET ( 1, 0, .AHEAD. ) ;
#89 = PRODUCT_DEFINITION_FORMATION_WITH_SPECIFIED_SOURCE ( 'ANY', '', #71, .NOT_KNOWN. ) ;
#90 = ADVANCED_FACE ( 'NONE', ( #21 ), #143, .F. ) ;
#91 = FACE_OUTER_BOUND ( 'NONE', #122, .T. ) ;
#92 = AXIS2_PLACEMENT_3D ( 'NONE', #24, #214, #154 ) ;
#93 = CARTESIAN_POINT ( 'NONE',  ( 0.5500000000000080380, 0.0000000000000000000, 2.399999999999996358 ) ) ;
#94 = APPROVAL_PERSON_ORGANIZATION ( #177, #218, #49 ) ;
#95 = CARTESIAN_POINT ( 'NONE',  ( 8.379555213223513742E-15, 0.0000000000000000000, 2.399999999999998579 ) ) ;
#96 = DIRECTION ( 'NONE',  ( 4.275831445896958607E-31, 1.000000000000000000, 1.224646799147353207E-16 ) ) ;
#97 = ORIENTED_EDGE ( 'NONE', *, *, #163, .F. ) ;
#98 = VERTEX_POINT ( 'NONE', #172 ) ;
#99 = ORIENTED_EDGE ( 'NONE', *, *, #7, .F. ) ;
#100 = PERSON_AND_ORGANIZATION_ROLE ( 'design_owner' ) ;
#101 = ORIENTED_EDGE ( 'NONE', *, *, #176, .F. ) ;
#102 = CC_DESIGN_PERSON_AND_ORGANIZATION_ASSIGNMENT ( #199, #84, ( #130 ) ) ;
#103 = COORDINATED_UNIVERSAL_TIME_OFFSET ( 1, 0, .AHEAD. ) ;
#104 = DESIGN_CONTEXT ( 'detailed design', #149, 'design' ) ;
#105 = CALENDAR_DATE ( 2021, 15, 11 ) ;
#106 = CIRCLE ( 'NONE', #43, 1.999999999999999556 ) ;
#107 = LOCAL_TIME ( 9, 5, 58.00000000000000000, #87 ) ;
#108 = DIRECTION ( 'NONE',  ( 1.000000000000000000, 0.0000000000000000000, -3.154042683594196402E-15 ) ) ;
#109 = DIRECTION ( 'NONE',  ( -3.491481338843133355E-15, 1.224646799147353207E-16, -1.000000000000000000 ) ) ;
#110 = DIRECTION ( 'NONE',  ( 1.000000000000000000, 0.0000000000000000000, -3.469446951953614189E-15 ) ) ;
#111 = FACE_OUTER_BOUND ( 'NONE', #195, .T. ) ;
#112 = FACE_OUTER_BOUND ( 'NONE', #192, .T. ) ;
#113 = TOROIDAL_SURFACE ( 'NONE', #125, 2.549999999999999822, 2.000000000000000000 ) ;
#114 = CARTESIAN_POINT ( 'NONE',  ( 0.6181483474218699703, 0.0000000000000000000, 2.917638090205024959 ) ) ;
#115 = DIRECTION ( 'NONE',  ( 3.491481338843133355E-15, -0.0000000000000000000, 1.000000000000000000 ) ) ;
#116 = ADVANCED_FACE ( 'NONE', ( #82 ), #134, .T. ) ;
#117 = ORIENTED_EDGE ( 'NONE', *, *, #13, .F. ) ;
#118 = DIRECTION ( 'NONE',  ( 0.0000000000000000000, 1.000000000000000000, 0.0000000000000000000 ) ) ;
#119 = CLOSED_SHELL ( 'NONE', ( #116, #132, #211 ) ) ;
#120 = CIRCLE ( 'NONE', #73, 0.5500000000000001554 ) ;
#121 = SECURITY_CLASSIFICATION_LEVEL ( 'unclassified' ) ;
#122 = EDGE_LOOP ( 'NONE', ( #174 ) ) ;
#123 = DATE_TIME_ROLE ( 'classification_date' ) ;
#124 = DATE_AND_TIME ( #30, #160 ) ;
#125 = AXIS2_PLACEMENT_3D ( 'NONE', #95, #135, #38 ) ;
#126 = PERSON_AND_ORGANIZATION ( #1, #40 ) ;
#127 = DATE_TIME_ROLE ( 'creation_date' ) ;
#128 = CONICAL_SURFACE ( 'NONE', #153, 4.000000000000000000, 0.2617993877991428020 ) ;
#129 = CARTESIAN_POINT ( 'NONE',  ( 8.379555213223513742E-15, 0.0000000000000000000, 2.399999999999998135 ) ) ;
#130 = SECURITY_CLASSIFICATION ( '', '', #121 ) ;
#131 =( NAMED_UNIT ( * ) PLANE_ANGLE_UNIT ( ) SI_UNIT ( $, .RADIAN. ) );
#132 = ADVANCED_FACE ( 'NONE', ( #18, #209 ), #171, .T. ) ;
#133 = DIRECTION ( 'NONE',  ( -3.491481338843133355E-15, 1.224646799147353207E-16, -1.000000000000000000 ) ) ;
#134 = PLANE ( 'NONE',  #79 ) ;
#135 = DIRECTION ( 'NONE',  ( 3.491481338843133355E-15, -0.0000000000000000000, 1.000000000000000000 ) ) ;
#136 = APPLICATION_CONTEXT ( 'configuration controlled 3d designs of mechanical parts and assemblies' ) ;
#137 = ORIENTED_EDGE ( 'NONE', *, *, #13, .T. ) ;
#138 = CARTESIAN_POINT ( 'NONE',  ( 1.326762908760390675E-13, -8.377713426430119900E-31, 38.00000000000000711 ) ) ;
#139 = ORIENTED_EDGE ( 'NONE', *, *, #61, .F. ) ;
#140 = PERSON_AND_ORGANIZATION ( #1, #40 ) ;
#141 = EDGE_LOOP ( 'NONE', ( #221 ) ) ;
#142 = DIRECTION ( 'NONE',  ( 0.0000000000000000000, 0.0000000000000000000, 1.000000000000000000 ) ) ;
#143 = PLANE ( 'NONE',  #202 ) ;
#144 = ORIENTED_EDGE ( 'NONE', *, *, #77, .F. ) ;
#145 = DATE_AND_TIME ( #158, #47 ) ;
#146 = APPLICATION_PROTOCOL_DEFINITION ( 'international standard', 'config_control_design', 1994, #149 ) ;
#147 = CC_DESIGN_DATE_AND_TIME_ASSIGNMENT ( #224, #127, ( #81 ) ) ;
#148 = DIRECTION ( 'NONE',  ( 1.000000000000000000, 0.0000000000000000000, -3.154042683594196402E-15 ) ) ;
#149 = APPLICATION_CONTEXT ( 'configuration controlled 3d designs of mechanical parts and assemblies' ) ;
#150 = EDGE_LOOP ( 'NONE', ( #99 ) ) ;
#151 =( GEOMETRIC_REPRESENTATION_CONTEXT ( 3 ) GLOBAL_UNCERTAINTY_ASSIGNED_CONTEXT ( ( #52 ) ) GLOBAL_UNIT_ASSIGNED_CONTEXT ( ( #217, #131, #152 ) ) REPRESENTATION_CONTEXT ( 'NONE', 'WORKASPACE' ) );
#152 =( NAMED_UNIT ( * ) SI_UNIT ( $, .STERADIAN. ) SOLID_ANGLE_UNIT ( ) );
#153 = AXIS2_PLACEMENT_3D ( 'NONE', #185, #168, #229 ) ;
#154 = DIRECTION ( 'NONE',  ( 0.0000000000000000000, 1.000000000000000000, 0.0000000000000000000 ) ) ;
#155 = EDGE_LOOP ( 'NONE', ( #48 ) ) ;
#156 = FACE_OUTER_BOUND ( 'NONE', #11, .T. ) ;
#157 = EDGE_LOOP ( 'NONE', ( #144 ) ) ;
#158 = CALENDAR_DATE ( 2021, 15, 11 ) ;
#159 = ADVANCED_FACE ( 'NONE', ( #19, #212 ), #54, .T. ) ;
#160 = LOCAL_TIME ( 9, 5, 58.00000000000000000, #53 ) ;
#161 = CARTESIAN_POINT ( 'NONE',  ( 0.0000000000000000000, 0.0000000000000000000, 0.0000000000000000000 ) ) ;
#162 = ADVANCED_BREP_SHAPE_REPRESENTATION ( '334951', ( #232, #66, #207 ), #151 ) ;
#163 = EDGE_CURVE ( 'NONE', #58, #58, #240, .T. ) ;
#164 = COORDINATED_UNIVERSAL_TIME_OFFSET ( 1, 0, .AHEAD. ) ;
#165 = APPROVAL_PERSON_ORGANIZATION ( #126, #184, #68 ) ;
#166 = ADVANCED_FACE ( 'NONE', ( #112, #190 ), #113, .F. ) ;
#167 = CC_DESIGN_PERSON_AND_ORGANIZATION_ASSIGNMENT ( #140, #183, ( #89 ) ) ;
#168 = DIRECTION ( 'NONE',  ( 3.491481338843133355E-15, -0.0000000000000000000, 1.000000000000000000 ) ) ;
#169 = CARTESIAN_POINT ( 'NONE',  ( 1.326762908760390675E-13, 1.599999999999997202, 38.00000000000000711 ) ) ;
#170 = AXIS2_PLACEMENT_3D ( 'NONE', #138, #22, #96 ) ;
#171 = CYLINDRICAL_SURFACE ( 'NONE', #173, 0.5499999999999999334 ) ;
#172 = CARTESIAN_POINT ( 'NONE',  ( 2.000000000000028422, 0.0000000000000000000, 8.074778666149796891 ) ) ;
#173 = AXIS2_PLACEMENT_3D ( 'NONE', #6, #231, #60 ) ;
#174 = ORIENTED_EDGE ( 'NONE', *, *, #7, .T. ) ;
#175 = CARTESIAN_POINT ( 'NONE',  ( 1.326762908760390675E-13, -4.653657836759942730E-15, 38.00000000000000711 ) ) ;
#176 = EDGE_CURVE ( 'NONE', #80, #80, #120, .T. ) ;
#177 = PERSON_AND_ORGANIZATION ( #1, #40 ) ;
#178 = EDGE_LOOP ( 'NONE', ( #117 ) ) ;
#179 = APPROVAL_ROLE ( '' ) ;
#180 = LOCAL_TIME ( 9, 5, 58.00000000000000000, #164 ) ;
#181 = EDGE_LOOP ( 'NONE', ( #23 ) ) ;
#182 = DATE_AND_TIME ( #222, #180 ) ;
#183 = PERSON_AND_ORGANIZATION_ROLE ( 'creator' ) ;
#184 = APPROVAL ( #239, 'UNSPECIFIED' ) ;
#185 = CARTESIAN_POINT ( 'NONE',  ( 5.425371052863373876E-14, 0.0000000000000000000, 15.53888028128775467 ) ) ;
#186 = CYLINDRICAL_SURFACE ( 'NONE', #230, 2.000000000000000000 ) ;
#187 = CARTESIAN_POINT ( 'NONE',  ( 1.018687894544877170E-14, 0.0000000000000000000, 2.917638090205027179 ) ) ;
#188 = APPROVAL ( #27, 'UNSPECIFIED' ) ;
#189 = AXIS2_PLACEMENT_3D ( 'NONE', #175, #191, #118 ) ;
#190 = FACE_OUTER_BOUND ( 'NONE', #155, .T. ) ;
#191 = DIRECTION ( 'NONE',  ( -3.491481338843133355E-15, 1.224646799147353207E-16, -1.000000000000000000 ) ) ;
#192 = EDGE_LOOP ( 'NONE', ( #137 ) ) ;
#193 = DIRECTION ( 'NONE',  ( 3.491481338843133355E-15, -1.224646799147353207E-16, 1.000000000000000000 ) ) ;
#194 = EDGE_LOOP ( 'NONE', ( #83 ) ) ;
#195 = EDGE_LOOP ( 'NONE', ( #97 ) ) ;
#196 = PERSON_AND_ORGANIZATION ( #1, #40 ) ;
#197 = CARTESIAN_POINT ( 'NONE',  ( 8.379555213223516897E-15, -5.204170427930420297E-16, 2.399999999999999467 ) ) ;
#198 = ORIENTED_EDGE ( 'NONE', *, *, #163, .T. ) ;
#199 = PERSON_AND_ORGANIZATION ( #1, #40 ) ;
#200 = AXIS2_PLACEMENT_3D ( 'NONE', #187, #59, #210 ) ;
#201 = PERSON_AND_ORGANIZATION ( #1, #40 ) ;
#202 = AXIS2_PLACEMENT_3D ( 'NONE', #197, #50, #69 ) ;
#203 = CC_DESIGN_PERSON_AND_ORGANIZATION_ASSIGNMENT ( #241, #51, ( #81 ) ) ;
#204 = CC_DESIGN_APPROVAL ( #188, ( #81 ) ) ;
#205 = DIRECTION ( 'NONE',  ( 3.491481338843133355E-15, -0.0000000000000000000, 1.000000000000000000 ) ) ;
#206 = DIRECTION ( 'NONE',  ( 3.491481338843133355E-15, -0.0000000000000000000, 1.000000000000000000 ) ) ;
#207 = AXIS2_PLACEMENT_3D ( 'NONE', #161, #142, #46 ) ;
#208 = DIRECTION ( 'NONE',  ( -3.491481338843133355E-15, 1.224646799147353207E-16, -1.000000000000000000 ) ) ;
#209 = FACE_OUTER_BOUND ( 'NONE', #44, .T. ) ;
#210 = DIRECTION ( 'NONE',  ( 1.000000000000000000, 0.0000000000000000000, -3.507902842440450416E-15 ) ) ;
#211 = ADVANCED_FACE ( 'NONE', ( #156 ), #20, .T. ) ;
#212 = FACE_OUTER_BOUND ( 'NONE', #150, .T. ) ;
#213 = AXIS2_PLACEMENT_3D ( 'NONE', #36, #2, #110 ) ;
#214 = DIRECTION ( 'NONE',  ( -3.491481338843133355E-15, 1.224646799147353207E-16, -1.000000000000000000 ) ) ;
#215 = DIRECTION ( 'NONE',  ( 1.000000000000000000, 0.0000000000000000000, -3.491481338843133750E-15 ) ) ;
#216 = EDGE_LOOP ( 'NONE', ( #238 ) ) ;
#217 =( LENGTH_UNIT ( ) NAMED_UNIT ( * ) SI_UNIT ( .MILLI., .METRE. ) );
#218 = APPROVAL ( #65, 'UNSPECIFIED' ) ;
#219 = PERSON_AND_ORGANIZATION_ROLE ( 'design_supplier' ) ;
#220 = CIRCLE ( 'NONE', #3, 0.5499999999999997113 ) ;
#221 = ORIENTED_EDGE ( 'NONE', *, *, #77, .T. ) ;
#222 = CALENDAR_DATE ( 2021, 15, 11 ) ;
#223 = PRODUCT_RELATED_PRODUCT_CATEGORY ( 'detail', '', ( #71 ) ) ;
#224 = DATE_AND_TIME ( #105, #107 ) ;
#225 = CLOSED_SHELL ( 'NONE', ( #28, #159, #233, #166, #37, #90 ) ) ;
#226 = SHAPE_DEFINITION_REPRESENTATION ( #14, #162 ) ;
#227 = DIRECTION ( 'NONE',  ( 4.275831445896958607E-31, 1.000000000000000000, 1.224646799147353207E-16 ) ) ;
#228 = CC_DESIGN_PERSON_AND_ORGANIZATION_ASSIGNMENT ( #196, #219, ( #89 ) ) ;
#229 = DIRECTION ( 'NONE',  ( 1.000000000000000000, 0.0000000000000000000, -3.469446951953614189E-15 ) ) ;
#230 = AXIS2_PLACEMENT_3D ( 'NONE', #34, #109, #227 ) ;
#231 = DIRECTION ( 'NONE',  ( 3.491481338843133355E-15, -0.0000000000000000000, 1.000000000000000000 ) ) ;
#232 = MANIFOLD_SOLID_BREP ( 'Corps-Déplacer/Copier1[1]', #225 ) ;
#233 = ADVANCED_FACE ( 'NONE', ( #111 ), #42, .F. ) ;
#234 = CARTESIAN_POINT ( 'NONE',  ( -4.275831445896957731E-31, 1.499759782661857608E-32, -1.224646799147353207E-16 ) ) ;
#235 = VERTEX_POINT ( 'NONE', #114 ) ;
#236 = DIRECTION ( 'NONE',  ( 4.275831445896958607E-31, 1.000000000000000000, 1.224646799147353207E-16 ) ) ;
#237 = EDGE_LOOP ( 'NONE', ( #198 ) ) ;
#238 = ORIENTED_EDGE ( 'NONE', *, *, #176, .T. ) ;
#239 = APPROVAL_STATUS ( 'not_yet_approved' ) ;
#240 = CIRCLE ( 'NONE', #189, 1.600000000000001865 ) ;
#241 = PERSON_AND_ORGANIZATION ( #1, #40 ) ;
#242 = MECHANICAL_CONTEXT ( 'NONE', #136, 'mechanical' ) ;
#243 = APPROVAL_PERSON_ORGANIZATION ( #70, #188, #179 ) ;
ENDSEC;
END-ISO-10303-21;
