ISO-10303-21;
HEADER;
FILE_DESCRIPTION (( 'STEP AP203' ),
    '1' );
FILE_NAME ('334950.step',
    '2021-11-15T08:05:58',
    ( '' ),
    ( '' ),
    'SwSTEP 2.0',
    'SolidWorks 2019',
    '' );
FILE_SCHEMA (( 'CONFIG_CONTROL_DESIGN' ));
ENDSEC;

DATA;
#1 = DIRECTION ( 'NONE',  ( 3.491481338843133355E-15, -0.0000000000000000000, 1.000000000000000000 ) ) ;
#2 = APPROVAL_DATE_TIME ( #19, #31 ) ;
#3 = PLANE ( 'NONE',  #113 ) ;
#4 = DATE_TIME_ROLE ( 'creation_date' ) ;
#5 = CARTESIAN_POINT ( 'NONE',  ( 0.5000000000000000000, 0.0000000000000000000, -2.235599389080508059E-15 ) ) ;
#6 = DIRECTION ( 'NONE',  ( 1.000000000000000000, 0.0000000000000000000, -3.469446951953617344E-15 ) ) ;
#7 = DIRECTION ( 'NONE',  ( 1.000000000000000000, 0.0000000000000000000, -3.816616478444019910E-15 ) ) ;
#8 = AXIS2_PLACEMENT_3D ( 'NONE', #160, #119, #140 ) ;
#9 = AXIS2_PLACEMENT_3D ( 'NONE', #110, #193, #229 ) ;
#10 = EDGE_LOOP ( 'NONE', ( #161 ) ) ;
#11 = CARTESIAN_POINT ( 'NONE',  ( 5.420693354837717586E-14, 0.0000000000000000000, 15.52548282166620019 ) ) ;
#12 = DIRECTION ( 'NONE',  ( 3.491481338843133355E-15, -0.0000000000000000000, 1.000000000000000000 ) ) ;
#13 = ADVANCED_FACE ( 'NONE', ( #116, #183 ), #153, .T. ) ;
#14 = CIRCLE ( 'NONE', #185, 0.5000000000000000000 ) ;
#15 = AXIS2_PLACEMENT_3D ( 'NONE', #188, #147, #87 ) ;
#16 =( GEOMETRIC_REPRESENTATION_CONTEXT ( 3 ) GLOBAL_UNCERTAINTY_ASSIGNED_CONTEXT ( ( #136 ) ) GLOBAL_UNIT_ASSIGNED_CONTEXT ( ( #155, #20, #38 ) ) REPRESENTATION_CONTEXT ( 'NONE', 'WORKASPACE' ) );
#17 = APPLICATION_PROTOCOL_DEFINITION ( 'international standard', 'config_control_design', 1994, #181 ) ;
#18 = DIRECTION ( 'NONE',  ( 1.000000000000000000, 0.0000000000000000000, -3.491481338843133355E-15 ) ) ;
#19 = DATE_AND_TIME ( #173, #118 ) ;
#20 =( NAMED_UNIT ( * ) PLANE_ANGLE_UNIT ( ) SI_UNIT ( $, .RADIAN. ) );
#21 = APPROVAL_STATUS ( 'not_yet_approved' ) ;
#22 = APPLICATION_PROTOCOL_DEFINITION ( 'international standard', 'config_control_design', 1994, #41 ) ;
#23 = VERTEX_POINT ( 'NONE', #73 ) ;
#24 = CARTESIAN_POINT ( 'NONE',  ( -1.710332578358783092E-30, 0.0000000000000000000, -4.898587196589412829E-16 ) ) ;
#25 = DESIGN_CONTEXT ( 'detailed design', #41, 'design' ) ;
#26 = EDGE_LOOP ( 'NONE', ( #30 ) ) ;
#27 = CC_DESIGN_DATE_AND_TIME_ASSIGNMENT ( #39, #191, ( #207 ) ) ;
#28 = CARTESIAN_POINT ( 'NONE',  ( 9.488582677680145029E-15, 0.0000000000000000000, 2.717638090205027446 ) ) ;
#29 = CC_DESIGN_SECURITY_CLASSIFICATION ( #207, ( #102 ) ) ;
#30 = ORIENTED_EDGE ( 'NONE', *, *, #206, .T. ) ;
#31 = APPROVAL ( #214, 'UNSPECIFIED' ) ;
#32 = EDGE_LOOP ( 'NONE', ( #197 ) ) ;
#33 = CONICAL_SURFACE ( 'NONE', #170, 1.999999999999999556, 0.7853981633974485010 ) ;
#34 = ORIENTED_EDGE ( 'NONE', *, *, #35, .F. ) ;
#35 = EDGE_CURVE ( 'NONE', #192, #192, #164, .T. ) ;
#36 = AXIS2_PLACEMENT_3D ( 'NONE', #11, #137, #178 ) ;
#37 = PERSON_AND_ORGANIZATION ( #228, #62 ) ;
#38 =( NAMED_UNIT ( * ) SI_UNIT ( $, .STERADIAN. ) SOLID_ANGLE_UNIT ( ) );
#39 = DATE_AND_TIME ( #127, #200 ) ;
#40 = DIRECTION ( 'NONE',  ( 3.491481338843133355E-15, -0.0000000000000000000, 1.000000000000000000 ) ) ;
#41 = APPLICATION_CONTEXT ( 'configuration controlled 3d designs of mechanical parts and assemblies' ) ;
#42 = TOROIDAL_SURFACE ( 'NONE', #227, 2.500000000000000000, 2.000000000000000000 ) ;
#43 = PERSON_AND_ORGANIZATION ( #228, #62 ) ;
#44 = CC_DESIGN_PERSON_AND_ORGANIZATION_ASSIGNMENT ( #43, #111, ( #102 ) ) ;
#45 = DIRECTION ( 'NONE',  ( 3.491481338843133355E-15, -0.0000000000000000000, 1.000000000000000000 ) ) ;
#46 = APPROVAL_ROLE ( '' ) ;
#47 = CARTESIAN_POINT ( 'NONE',  ( 1.326762908760390675E-13, -8.377713426430119900E-31, 38.00000000000000711 ) ) ;
#48 = PLANE ( 'NONE',  #121 ) ;
#49 = AXIS2_PLACEMENT_3D ( 'NONE', #202, #61, #132 ) ;
#50 = FACE_OUTER_BOUND ( 'NONE', #78, .T. ) ;
#51 = CARTESIAN_POINT ( 'NONE',  ( 7.681258945454888648E-15, 0.0000000000000000000, 2.199999999999998401 ) ) ;
#52 = ORIENTED_EDGE ( 'NONE', *, *, #35, .T. ) ;
#53 = AXIS2_PLACEMENT_3D ( 'NONE', #219, #198, #222 ) ;
#54 = CC_DESIGN_PERSON_AND_ORGANIZATION_ASSIGNMENT ( #171, #128, ( #207 ) ) ;
#55 = EDGE_LOOP ( 'NONE', ( #201 ) ) ;
#56 = EDGE_LOOP ( 'NONE', ( #65 ) ) ;
#57 = APPROVAL_PERSON_ORGANIZATION ( #146, #134, #154 ) ;
#58 = PERSON_AND_ORGANIZATION ( #228, #62 ) ;
#59 = CARTESIAN_POINT ( 'NONE',  ( 0.5000000000000073275, 0.0000000000000000000, 2.199999999999996625 ) ) ;
#60 = FACE_OUTER_BOUND ( 'NONE', #82, .T. ) ;
#61 = DIRECTION ( 'NONE',  ( -3.491481338843133355E-15, 1.224646799147353207E-16, -1.000000000000000000 ) ) ;
#62 = ORGANIZATION ( 'UNSPECIFIED', 'UNSPECIFIED', '' ) ;
#63 = DIRECTION ( 'NONE',  ( 3.491481338843133355E-15, -1.224646799147353207E-16, 1.000000000000000000 ) ) ;
#64 = EDGE_LOOP ( 'NONE', ( #114 ) ) ;
#65 = ORIENTED_EDGE ( 'NONE', *, *, #85, .F. ) ;
#66 = DIRECTION ( 'NONE',  ( 0.0000000000000000000, 1.000000000000000000, 0.0000000000000000000 ) ) ;
#67 = APPROVAL ( #21, 'UNSPECIFIED' ) ;
#68 = PRODUCT ( '334950', '334950', '', ( #224 ) ) ;
#69 = ADVANCED_FACE ( 'NONE', ( #236 ), #238, .T. ) ;
#70 = DATE_AND_TIME ( #150, #212 ) ;
#71 = DIRECTION ( 'NONE',  ( 4.275831445896958607E-31, 1.000000000000000000, 1.224646799147353207E-16 ) ) ;
#72 = FACE_OUTER_BOUND ( 'NONE', #64, .T. ) ;
#73 = CARTESIAN_POINT ( 'NONE',  ( 2.000000000000028422, 0.0000000000000000000, 8.061381206528242416 ) ) ;
#74 = COORDINATED_UNIVERSAL_TIME_OFFSET ( 1, 0, .AHEAD. ) ;
#75 = CYLINDRICAL_SURFACE ( 'NONE', #123, 0.4999999999999997780 ) ;
#76 = PERSON_AND_ORGANIZATION_ROLE ( 'design_supplier' ) ;
#77 = CARTESIAN_POINT ( 'NONE',  ( 7.681258945454893382E-15, -4.770489558936218524E-16, 2.199999999999999734 ) ) ;
#78 = EDGE_LOOP ( 'NONE', ( #187 ) ) ;
#79 = CIRCLE ( 'NONE', #124, 0.5681483474218600449 ) ;
#80 = EDGE_CURVE ( 'NONE', #210, #210, #221, .T. ) ;
#81 = PLANE ( 'NONE',  #49 ) ;
#82 = EDGE_LOOP ( 'NONE', ( #100 ) ) ;
#83 = FACE_BOUND ( 'NONE', #220, .T. ) ;
#84 = ADVANCED_FACE ( 'NONE', ( #97, #50 ), #156, .T. ) ;
#85 = EDGE_CURVE ( 'NONE', #231, #231, #14, .T. ) ;
#86 = PERSON_AND_ORGANIZATION ( #228, #62 ) ;
#87 = DIRECTION ( 'NONE',  ( 0.0000000000000000000, 1.000000000000000000, 0.0000000000000000000 ) ) ;
#88 = COORDINATED_UNIVERSAL_TIME_OFFSET ( 1, 0, .AHEAD. ) ;
#89 = APPROVAL_DATE_TIME ( #70, #67 ) ;
#90 = APPROVAL_PERSON_ORGANIZATION ( #125, #31, #208 ) ;
#91 = PERSON_AND_ORGANIZATION ( #228, #62 ) ;
#92 = FACE_OUTER_BOUND ( 'NONE', #135, .T. ) ;
#93 = CALENDAR_DATE ( 2021, 15, 11 ) ;
#94 = CARTESIAN_POINT ( 'NONE',  ( 1.312796983405018394E-13, 1.999999999999994893, 37.60000000000000853 ) ) ;
#95 = AXIS2_PLACEMENT_3D ( 'NONE', #51, #203, #6 ) ;
#96 = DIRECTION ( 'NONE',  ( 1.000000000000000000, 0.0000000000000000000, -3.491481338843133355E-15 ) ) ;
#97 = FACE_OUTER_BOUND ( 'NONE', #26, .T. ) ;
#98 = FACE_OUTER_BOUND ( 'NONE', #56, .T. ) ;
#99 = CC_DESIGN_APPROVAL ( #67, ( #102 ) ) ;
#100 = ORIENTED_EDGE ( 'NONE', *, *, #85, .T. ) ;
#101 = CARTESIAN_POINT ( 'NONE',  ( 0.0000000000000000000, 0.0000000000000000000, 0.0000000000000000000 ) ) ;
#102 = PRODUCT_DEFINITION_FORMATION_WITH_SPECIFIED_SOURCE ( 'ANY', '', #68, .NOT_KNOWN. ) ;
#103 = ORIENTED_EDGE ( 'NONE', *, *, #80, .F. ) ;
#104 = CC_DESIGN_PERSON_AND_ORGANIZATION_ASSIGNMENT ( #91, #76, ( #102 ) ) ;
#105 = CIRCLE ( 'NONE', #9, 2.000000000000000000 ) ;
#106 = SECURITY_CLASSIFICATION_LEVEL ( 'unclassified' ) ;
#107 = PERSON_AND_ORGANIZATION_ROLE ( 'creator' ) ;
#108 = ADVANCED_FACE ( 'NONE', ( #83, #233 ), #33, .T. ) ;
#109 = CLOSED_SHELL ( 'NONE', ( #84, #108, #182, #177, #13, #120 ) ) ;
#110 = CARTESIAN_POINT ( 'NONE',  ( 2.814616204789412657E-14, 0.0000000000000000000, 8.061381206528249521 ) ) ;
#111 = PERSON_AND_ORGANIZATION_ROLE ( 'creator' ) ;
#112 = VERTEX_POINT ( 'NONE', #195 ) ;
#113 = AXIS2_PLACEMENT_3D ( 'NONE', #47, #242, #71 ) ;
#114 = ORIENTED_EDGE ( 'NONE', *, *, #80, .T. ) ;
#115 = DIRECTION ( 'NONE',  ( 3.491481338843133355E-15, -0.0000000000000000000, 1.000000000000000000 ) ) ;
#116 = FACE_OUTER_BOUND ( 'NONE', #117, .T. ) ;
#117 = EDGE_LOOP ( 'NONE', ( #159 ) ) ;
#118 = LOCAL_TIME ( 9, 5, 58.00000000000000000, #240 ) ;
#119 = DIRECTION ( 'NONE',  ( 3.491481338843133355E-15, -1.224646799147353207E-16, 1.000000000000000000 ) ) ;
#120 = ADVANCED_FACE ( 'NONE', ( #143 ), #48, .F. ) ;
#121 = AXIS2_PLACEMENT_3D ( 'NONE', #77, #63, #218 ) ;
#122 = EDGE_LOOP ( 'NONE', ( #103 ) ) ;
#123 = AXIS2_PLACEMENT_3D ( 'NONE', #225, #40, #126 ) ;
#124 = AXIS2_PLACEMENT_3D ( 'NONE', #28, #115, #7 ) ;
#125 = PERSON_AND_ORGANIZATION ( #228, #62 ) ;
#126 = DIRECTION ( 'NONE',  ( 1.000000000000000000, 0.0000000000000000000, -3.491481338843133355E-15 ) ) ;
#127 = CALENDAR_DATE ( 2021, 15, 11 ) ;
#128 = PERSON_AND_ORGANIZATION_ROLE ( 'classification_officer' ) ;
#129 = FACE_OUTER_BOUND ( 'NONE', #55, .T. ) ;
#130 = DATE_AND_TIME ( #93, #205 ) ;
#131 = CC_DESIGN_APPROVAL ( #31, ( #237 ) ) ;
#132 = DIRECTION ( 'NONE',  ( 4.275831445896958607E-31, 1.000000000000000000, 1.224646799147353207E-16 ) ) ;
#133 = SHAPE_DEFINITION_REPRESENTATION ( #179, #204 ) ;
#134 = APPROVAL ( #189, 'UNSPECIFIED' ) ;
#135 = EDGE_LOOP ( 'NONE', ( #34 ) ) ;
#136 = UNCERTAINTY_MEASURE_WITH_UNIT (LENGTH_MEASURE( 1.000000000000000082E-05 ), #155, 'distance_accuracy_value', 'NONE');
#137 = DIRECTION ( 'NONE',  ( 3.491481338843133355E-15, -0.0000000000000000000, 1.000000000000000000 ) ) ;
#138 = MANIFOLD_SOLID_BREP ( 'Corps-Déplacer/Copier1[2]', #234 ) ;
#139 = DIRECTION ( 'NONE',  ( -3.491481338843133355E-15, 1.224646799147353207E-16, -1.000000000000000000 ) ) ;
#140 = DIRECTION ( 'NONE',  ( -4.275831445896958607E-31, -1.000000000000000000, -1.224646799147353207E-16 ) ) ;
#141 = LOCAL_TIME ( 9, 5, 58.00000000000000000, #88 ) ;
#142 = CC_DESIGN_DATE_AND_TIME_ASSIGNMENT ( #130, #4, ( #237 ) ) ;
#143 = FACE_OUTER_BOUND ( 'NONE', #122, .T. ) ;
#144 = MANIFOLD_SOLID_BREP ( 'Corps-Déplacer/Copier1[1]', #109 ) ;
#145 = CIRCLE ( 'NONE', #186, 0.4999999999999995559 ) ;
#146 = PERSON_AND_ORGANIZATION ( #228, #62 ) ;
#147 = DIRECTION ( 'NONE',  ( -3.491481338843133355E-15, 1.224646799147353207E-16, -1.000000000000000000 ) ) ;
#148 = DIRECTION ( 'NONE',  ( 1.000000000000000000, 0.0000000000000000000, 0.0000000000000000000 ) ) ;
#149 = EDGE_CURVE ( 'NONE', #112, #112, #79, .T. ) ;
#150 = CALENDAR_DATE ( 2021, 15, 11 ) ;
#151 = DATE_AND_TIME ( #211, #141 ) ;
#152 = CARTESIAN_POINT ( 'NONE',  ( 1.326762908760390675E-13, 1.599999999999997202, 38.00000000000000711 ) ) ;
#153 = CONICAL_SURFACE ( 'NONE', #36, 4.000000000000000000, 0.2617993877991428020 ) ;
#154 = APPROVAL_ROLE ( '' ) ;
#155 =( LENGTH_UNIT ( ) NAMED_UNIT ( * ) SI_UNIT ( .MILLI., .METRE. ) );
#156 = CYLINDRICAL_SURFACE ( 'NONE', #226, 2.000000000000000000 ) ;
#157 = CC_DESIGN_PERSON_AND_ORGANIZATION_ASSIGNMENT ( #58, #194, ( #68 ) ) ;
#158 = APPROVAL_PERSON_ORGANIZATION ( #37, #67, #46 ) ;
#159 = ORIENTED_EDGE ( 'NONE', *, *, #167, .F. ) ;
#160 = CARTESIAN_POINT ( 'NONE',  ( 7.681258945454893382E-15, -4.770489558936218524E-16, 2.199999999999999734 ) ) ;
#161 = ORIENTED_EDGE ( 'NONE', *, *, #149, .T. ) ;
#162 = CARTESIAN_POINT ( 'NONE',  ( 1.312796983405018394E-13, -4.604671964794048513E-15, 37.60000000000000853 ) ) ;
#163 = ADVANCED_FACE ( 'NONE', ( #98 ), #81, .T. ) ;
#164 = CIRCLE ( 'NONE', #53, 1.600000000000001865 ) ;
#165 = CIRCLE ( 'NONE', #15, 1.999999999999999556 ) ;
#166 = DIRECTION ( 'NONE',  ( 1.000000000000000000, 0.0000000000000000000, -3.469446951953617344E-15 ) ) ;
#167 = EDGE_CURVE ( 'NONE', #23, #23, #105, .T. ) ;
#168 = APPROVAL_DATE_TIME ( #151, #134 ) ;
#169 = FACE_OUTER_BOUND ( 'NONE', #235, .T. ) ;
#170 = AXIS2_PLACEMENT_3D ( 'NONE', #162, #176, #66 ) ;
#171 = PERSON_AND_ORGANIZATION ( #228, #62 ) ;
#172 = CARTESIAN_POINT ( 'NONE',  ( 0.0000000000000000000, 0.0000000000000000000, 0.0000000000000000000 ) ) ;
#173 = CALENDAR_DATE ( 2021, 15, 11 ) ;
#174 = VERTEX_POINT ( 'NONE', #59 ) ;
#175 = AXIS2_PLACEMENT_3D ( 'NONE', #172, #209, #148 ) ;
#176 = DIRECTION ( 'NONE',  ( -3.491481338843133355E-15, 1.224646799147353207E-16, -1.000000000000000000 ) ) ;
#177 = ADVANCED_FACE ( 'NONE', ( #72, #169 ), #42, .F. ) ;
#178 = DIRECTION ( 'NONE',  ( 1.000000000000000000, 0.0000000000000000000, -3.469446951953614189E-15 ) ) ;
#179 = PRODUCT_DEFINITION_SHAPE ( 'NONE', 'NONE',  #237 ) ;
#180 = ORIENTED_EDGE ( 'NONE', *, *, #206, .F. ) ;
#181 = APPLICATION_CONTEXT ( 'configuration controlled 3d designs of mechanical parts and assemblies' ) ;
#182 = ADVANCED_FACE ( 'NONE', ( #92 ), #3, .F. ) ;
#183 = FACE_BOUND ( 'NONE', #10, .T. ) ;
#184 = DIRECTION ( 'NONE',  ( 4.275831445896958607E-31, 1.000000000000000000, 1.224646799147353207E-16 ) ) ;
#185 = AXIS2_PLACEMENT_3D ( 'NONE', #24, #12, #96 ) ;
#186 = AXIS2_PLACEMENT_3D ( 'NONE', #215, #45, #166 ) ;
#187 = ORIENTED_EDGE ( 'NONE', *, *, #167, .T. ) ;
#188 = CARTESIAN_POINT ( 'NONE',  ( 1.312796983405018394E-13, -4.604671964794048513E-15, 37.60000000000000853 ) ) ;
#189 = APPROVAL_STATUS ( 'not_yet_approved' ) ;
#190 = VERTEX_POINT ( 'NONE', #94 ) ;
#191 = DATE_TIME_ROLE ( 'classification_date' ) ;
#192 = VERTEX_POINT ( 'NONE', #152 ) ;
#193 = DIRECTION ( 'NONE',  ( 3.491481338843133355E-15, -0.0000000000000000000, 1.000000000000000000 ) ) ;
#194 = PERSON_AND_ORGANIZATION_ROLE ( 'design_owner' ) ;
#195 = CARTESIAN_POINT ( 'NONE',  ( 0.5681483474218695928, 0.0000000000000000000, 2.717638090205025225 ) ) ;
#196 = ORIENTED_EDGE ( 'NONE', *, *, #149, .F. ) ;
#197 = ORIENTED_EDGE ( 'NONE', *, *, #232, .T. ) ;
#198 = DIRECTION ( 'NONE',  ( -3.491481338843133355E-15, 1.224646799147353207E-16, -1.000000000000000000 ) ) ;
#199 = CC_DESIGN_PERSON_AND_ORGANIZATION_ASSIGNMENT ( #86, #107, ( #237 ) ) ;
#200 = LOCAL_TIME ( 9, 5, 58.00000000000000000, #74 ) ;
#201 = ORIENTED_EDGE ( 'NONE', *, *, #232, .F. ) ;
#202 = CARTESIAN_POINT ( 'NONE',  ( -4.275831445896957731E-31, 1.499759782661857608E-32, -1.224646799147353207E-16 ) ) ;
#203 = DIRECTION ( 'NONE',  ( 3.491481338843133355E-15, -0.0000000000000000000, 1.000000000000000000 ) ) ;
#204 = ADVANCED_BREP_SHAPE_REPRESENTATION ( '334950', ( #144, #138, #175 ), #16 ) ;
#205 = LOCAL_TIME ( 9, 5, 58.00000000000000000, #230 ) ;
#206 = EDGE_CURVE ( 'NONE', #190, #190, #165, .T. ) ;
#207 = SECURITY_CLASSIFICATION ( '', '', #106 ) ;
#208 = APPROVAL_ROLE ( '' ) ;
#209 = DIRECTION ( 'NONE',  ( 0.0000000000000000000, 0.0000000000000000000, 1.000000000000000000 ) ) ;
#210 = VERTEX_POINT ( 'NONE', #241 ) ;
#211 = CALENDAR_DATE ( 2021, 15, 11 ) ;
#212 = LOCAL_TIME ( 9, 5, 58.00000000000000000, #216 ) ;
#213 = ADVANCED_FACE ( 'NONE', ( #60, #129 ), #75, .T. ) ;
#214 = APPROVAL_STATUS ( 'not_yet_approved' ) ;
#215 = CARTESIAN_POINT ( 'NONE',  ( 7.681258945454888648E-15, 0.0000000000000000000, 2.199999999999998401 ) ) ;
#216 = COORDINATED_UNIVERSAL_TIME_OFFSET ( 1, 0, .AHEAD. ) ;
#217 = CARTESIAN_POINT ( 'NONE',  ( 7.681258945454890226E-15, 0.0000000000000000000, 2.199999999999998845 ) ) ;
#218 = DIRECTION ( 'NONE',  ( -4.275831445896958607E-31, -1.000000000000000000, -1.224646799147353207E-16 ) ) ;
#219 = CARTESIAN_POINT ( 'NONE',  ( 1.326762908760390675E-13, -4.653657836759942730E-15, 38.00000000000000711 ) ) ;
#220 = EDGE_LOOP ( 'NONE', ( #52 ) ) ;
#221 = CIRCLE ( 'NONE', #95, 0.4999999999999995559 ) ;
#222 = DIRECTION ( 'NONE',  ( 0.0000000000000000000, 1.000000000000000000, 0.0000000000000000000 ) ) ;
#223 = PRODUCT_RELATED_PRODUCT_CATEGORY ( 'detail', '', ( #68 ) ) ;
#224 = MECHANICAL_CONTEXT ( 'NONE', #181, 'mechanical' ) ;
#225 = CARTESIAN_POINT ( 'NONE',  ( 0.0000000000000000000, 0.0000000000000000000, 0.0000000000000000000 ) ) ;
#226 = AXIS2_PLACEMENT_3D ( 'NONE', #101, #139, #184 ) ;
#227 = AXIS2_PLACEMENT_3D ( 'NONE', #217, #1, #18 ) ;
#228 = PERSON ( 'UNSPECIFIED', 'UNSPECIFIED', 'UNSPECIFIED', ('UNSPECIFIED'), ('UNSPECIFIED'), ('UNSPECIFIED') ) ;
#229 = DIRECTION ( 'NONE',  ( 1.000000000000000000, 0.0000000000000000000, -3.469446951953614189E-15 ) ) ;
#230 = COORDINATED_UNIVERSAL_TIME_OFFSET ( 1, 0, .AHEAD. ) ;
#231 = VERTEX_POINT ( 'NONE', #5 ) ;
#232 = EDGE_CURVE ( 'NONE', #174, #174, #145, .T. ) ;
#233 = FACE_OUTER_BOUND ( 'NONE', #239, .T. ) ;
#234 = CLOSED_SHELL ( 'NONE', ( #69, #213, #163 ) ) ;
#235 = EDGE_LOOP ( 'NONE', ( #196 ) ) ;
#236 = FACE_OUTER_BOUND ( 'NONE', #32, .T. ) ;
#237 = PRODUCT_DEFINITION ( 'UNKNOWN', '', #102, #25 ) ;
#238 = PLANE ( 'NONE',  #8 ) ;
#239 = EDGE_LOOP ( 'NONE', ( #180 ) ) ;
#240 = COORDINATED_UNIVERSAL_TIME_OFFSET ( 1, 0, .AHEAD. ) ;
#241 = CARTESIAN_POINT ( 'NONE',  ( 0.5000000000000073275, 0.0000000000000000000, 2.199999999999996625 ) ) ;
#242 = DIRECTION ( 'NONE',  ( -3.491481338843133355E-15, 1.224646799147353207E-16, -1.000000000000000000 ) ) ;
#243 = CC_DESIGN_APPROVAL ( #134, ( #207 ) ) ;
ENDSEC;
END-ISO-10303-21;
