ISO-10303-21;
HEADER;
FILE_DESCRIPTION (( 'STEP AP203' ),
    '1' );
FILE_NAME ('334949.step',
    '2021-11-15T08:05:57',
    ( '' ),
    ( '' ),
    'SwSTEP 2.0',
    'SolidWorks 2019',
    '' );
FILE_SCHEMA (( 'CONFIG_CONTROL_DESIGN' ));
ENDSEC;

DATA;
#1 = DIRECTION ( 'NONE',  ( 3.491481338843133355E-15, -0.0000000000000000000, 1.000000000000000000 ) ) ;
#2 = CARTESIAN_POINT ( 'NONE',  ( 5.416015656812063189E-14, 0.0000000000000000000, 15.51208536204465105 ) ) ;
#3 = CARTESIAN_POINT ( 'NONE',  ( 6.982962677686263555E-15, 0.0000000000000000000, 1.999999999999999112 ) ) ;
#4 = AXIS2_PLACEMENT_3D ( 'NONE', #18, #38, #110 ) ;
#5 = APPROVAL_PERSON_ORGANIZATION ( #234, #179, #156 ) ;
#6 = PRODUCT ( '334949', '334949', '', ( #69 ) ) ;
#7 = CALENDAR_DATE ( 2021, 15, 11 ) ;
#8 = DATE_TIME_ROLE ( 'creation_date' ) ;
#9 = DATE_AND_TIME ( #116, #62 ) ;
#10 = ADVANCED_FACE ( 'NONE', ( #199, #108 ), #66, .F. ) ;
#11 = VERTEX_POINT ( 'NONE', #228 ) ;
#12 = EDGE_LOOP ( 'NONE', ( #180 ) ) ;
#13 = DIRECTION ( 'NONE',  ( 1.000000000000000000, 0.0000000000000000000, -3.469446951953614189E-15 ) ) ;
#14 = CYLINDRICAL_SURFACE ( 'NONE', #185, 0.4499999999999996780 ) ;
#15 = EDGE_CURVE ( 'NONE', #117, #117, #167, .T. ) ;
#16 = DIRECTION ( 'NONE',  ( -3.491481338843133355E-15, 1.224646799147353207E-16, -1.000000000000000000 ) ) ;
#17 = AXIS2_PLACEMENT_3D ( 'NONE', #182, #16, #61 ) ;
#18 = CARTESIAN_POINT ( 'NONE',  ( 6.982962677686261977E-15, 0.0000000000000000000, 1.999999999999998668 ) ) ;
#19 = FACE_OUTER_BOUND ( 'NONE', #71, .T. ) ;
#20 =( NAMED_UNIT ( * ) PLANE_ANGLE_UNIT ( ) SI_UNIT ( $, .RADIAN. ) );
#21 = PERSON_AND_ORGANIZATION ( #121, #208 ) ;
#22 =( NAMED_UNIT ( * ) SI_UNIT ( $, .STERADIAN. ) SOLID_ANGLE_UNIT ( ) );
#23 = APPROVAL_DATE_TIME ( #118, #217 ) ;
#24 = AXIS2_PLACEMENT_3D ( 'NONE', #132, #207, #74 ) ;
#25 = PERSON_AND_ORGANIZATION ( #121, #208 ) ;
#26 = APPROVAL_ROLE ( '' ) ;
#27 = APPLICATION_PROTOCOL_DEFINITION ( 'international standard', 'config_control_design', 1994, #215 ) ;
#28 = APPROVAL_PERSON_ORGANIZATION ( #192, #162, #26 ) ;
#29 = ORIENTED_EDGE ( 'NONE', *, *, #15, .F. ) ;
#30 = DIRECTION ( 'NONE',  ( 0.0000000000000000000, 0.0000000000000000000, 1.000000000000000000 ) ) ;
#31 = DESIGN_CONTEXT ( 'detailed design', #164, 'design' ) ;
#32 = ORIENTED_EDGE ( 'NONE', *, *, #138, .T. ) ;
#33 = EDGE_CURVE ( 'NONE', #209, #209, #91, .T. ) ;
#34 = EDGE_LOOP ( 'NONE', ( #145 ) ) ;
#35 = CIRCLE ( 'NONE', #42, 1.999999999999999556 ) ;
#36 = EDGE_LOOP ( 'NONE', ( #241 ) ) ;
#37 = FACE_OUTER_BOUND ( 'NONE', #219, .T. ) ;
#38 = DIRECTION ( 'NONE',  ( 3.491481338843133355E-15, -0.0000000000000000000, 1.000000000000000000 ) ) ;
#39 = CARTESIAN_POINT ( 'NONE',  ( -4.275831445896957731E-31, 1.499759782661857608E-32, -1.224646799147353207E-16 ) ) ;
#40 = AXIS2_PLACEMENT_3D ( 'NONE', #3, #41, #58 ) ;
#41 = DIRECTION ( 'NONE',  ( 3.491481338843133355E-15, -0.0000000000000000000, 1.000000000000000000 ) ) ;
#42 = AXIS2_PLACEMENT_3D ( 'NONE', #77, #170, #153 ) ;
#43 = COORDINATED_UNIVERSAL_TIME_OFFSET ( 1, 0, .AHEAD. ) ;
#44 = CARTESIAN_POINT ( 'NONE',  ( 0.4500000000000064504, 0.0000000000000000000, 1.999999999999997113 ) ) ;
#45 = PERSON_AND_ORGANIZATION_ROLE ( 'creator' ) ;
#46 = CC_DESIGN_PERSON_AND_ORGANIZATION_ASSIGNMENT ( #21, #232, ( #120 ) ) ;
#47 = PERSON_AND_ORGANIZATION ( #121, #208 ) ;
#48 = COORDINATED_UNIVERSAL_TIME_OFFSET ( 1, 0, .AHEAD. ) ;
#49 = CLOSED_SHELL ( 'NONE', ( #90, #172, #198 ) ) ;
#50 = ADVANCED_FACE ( 'NONE', ( #169 ), #126, .F. ) ;
#51 = APPROVAL_STATUS ( 'not_yet_approved' ) ;
#52 = CARTESIAN_POINT ( 'NONE',  ( 0.4500000000000064504, 0.0000000000000000000, 1.999999999999997113 ) ) ;
#53 = EDGE_LOOP ( 'NONE', ( #161 ) ) ;
#54 = ORIENTED_EDGE ( 'NONE', *, *, #224, .T. ) ;
#55 = AXIS2_PLACEMENT_3D ( 'NONE', #39, #113, #142 ) ;
#56 = CARTESIAN_POINT ( 'NONE',  ( 1.326762908760390675E-13, -8.377713426430119900E-31, 38.00000000000000711 ) ) ;
#57 = CARTESIAN_POINT ( 'NONE',  ( 1.312796983405018394E-13, -4.604671964794048513E-15, 37.60000000000000853 ) ) ;
#58 = DIRECTION ( 'NONE',  ( 1.000000000000000000, 0.0000000000000000000, -3.491481338843133355E-15 ) ) ;
#59 = DIRECTION ( 'NONE',  ( -3.491481338843133355E-15, 1.224646799147353207E-16, -1.000000000000000000 ) ) ;
#60 = CONICAL_SURFACE ( 'NONE', #213, 4.000000000000000000, 0.2617993877991428020 ) ;
#61 = DIRECTION ( 'NONE',  ( 0.0000000000000000000, 1.000000000000000000, 0.0000000000000000000 ) ) ;
#62 = LOCAL_TIME ( 9, 5, 57.00000000000000000, #43 ) ;
#63 = APPROVAL_STATUS ( 'not_yet_approved' ) ;
#64 = CC_DESIGN_PERSON_AND_ORGANIZATION_ASSIGNMENT ( #193, #81, ( #176 ) ) ;
#65 = DATE_AND_TIME ( #134, #112 ) ;
#66 = TOROIDAL_SURFACE ( 'NONE', #40, 2.450000000000000178, 2.000000000000000444 ) ;
#67 = VERTEX_POINT ( 'NONE', #218 ) ;
#68 = ADVANCED_BREP_SHAPE_REPRESENTATION ( '334949', ( #141, #137, #101 ), #201 ) ;
#69 = MECHANICAL_CONTEXT ( 'NONE', #215, 'mechanical' ) ;
#70 = UNCERTAINTY_MEASURE_WITH_UNIT (LENGTH_MEASURE( 1.000000000000000082E-05 ), #78, 'distance_accuracy_value', 'NONE');
#71 = EDGE_LOOP ( 'NONE', ( #124 ) ) ;
#72 = EDGE_CURVE ( 'NONE', #67, #67, #240, .T. ) ;
#73 = FACE_OUTER_BOUND ( 'NONE', #92, .T. ) ;
#74 = DIRECTION ( 'NONE',  ( 1.000000000000000000, 0.0000000000000000000, -3.347928222888744221E-15 ) ) ;
#75 = CYLINDRICAL_SURFACE ( 'NONE', #86, 2.000000000000000000 ) ;
#76 = CARTESIAN_POINT ( 'NONE',  ( 0.0000000000000000000, 0.0000000000000000000, 0.0000000000000000000 ) ) ;
#77 = CARTESIAN_POINT ( 'NONE',  ( 1.312796983405018394E-13, -4.604671964794048513E-15, 37.60000000000000853 ) ) ;
#78 =( LENGTH_UNIT ( ) NAMED_UNIT ( * ) SI_UNIT ( .MILLI., .METRE. ) );
#79 = EDGE_CURVE ( 'NONE', #140, #140, #123, .T. ) ;
#80 = AXIS2_PLACEMENT_3D ( 'NONE', #225, #148, #168 ) ;
#81 = PERSON_AND_ORGANIZATION_ROLE ( 'creator' ) ;
#82 = LOCAL_TIME ( 9, 5, 57.00000000000000000, #214 ) ;
#83 = SECURITY_CLASSIFICATION_LEVEL ( 'unclassified' ) ;
#84 = APPROVAL_ROLE ( '' ) ;
#85 = DATE_AND_TIME ( #157, #154 ) ;
#86 = AXIS2_PLACEMENT_3D ( 'NONE', #76, #242, #99 ) ;
#87 = DIRECTION ( 'NONE',  ( 3.491481338843133355E-15, -0.0000000000000000000, 1.000000000000000000 ) ) ;
#88 = EDGE_LOOP ( 'NONE', ( #177 ) ) ;
#89 = CARTESIAN_POINT ( 'NONE',  ( 0.4499999999999999001, 0.0000000000000000000, -2.061025322138350997E-15 ) ) ;
#90 = ADVANCED_FACE ( 'NONE', ( #150 ), #202, .T. ) ;
#91 = CIRCLE ( 'NONE', #24, 0.5181483474218598895 ) ;
#92 = EDGE_LOOP ( 'NONE', ( #175 ) ) ;
#93 = ADVANCED_FACE ( 'NONE', ( #19, #183 ), #60, .T. ) ;
#94 = FACE_OUTER_BOUND ( 'NONE', #163, .T. ) ;
#95 = CARTESIAN_POINT ( 'NONE',  ( 0.0000000000000000000, 0.0000000000000000000, 0.0000000000000000000 ) ) ;
#96 = CC_DESIGN_APPROVAL ( #179, ( #120 ) ) ;
#97 = DIRECTION ( 'NONE',  ( 3.491481338843133355E-15, -0.0000000000000000000, 1.000000000000000000 ) ) ;
#98 = DIRECTION ( 'NONE',  ( -4.275831445896958607E-31, -1.000000000000000000, -1.224646799147353207E-16 ) ) ;
#99 = DIRECTION ( 'NONE',  ( 4.275831445896958607E-31, 1.000000000000000000, 1.224646799147353207E-16 ) ) ;
#100 = VERTEX_POINT ( 'NONE', #44 ) ;
#101 = AXIS2_PLACEMENT_3D ( 'NONE', #197, #30, #178 ) ;
#102 = PERSON_AND_ORGANIZATION ( #121, #208 ) ;
#103 = AXIS2_PLACEMENT_3D ( 'NONE', #187, #203, #98 ) ;
#104 = DATE_TIME_ROLE ( 'classification_date' ) ;
#105 = EDGE_LOOP ( 'NONE', ( #216 ) ) ;
#106 = APPROVAL_PERSON_ORGANIZATION ( #25, #217, #84 ) ;
#107 = EDGE_LOOP ( 'NONE', ( #181 ) ) ;
#108 = FACE_OUTER_BOUND ( 'NONE', #107, .T. ) ;
#109 = DIRECTION ( 'NONE',  ( -3.491481338843133355E-15, 1.224646799147353207E-16, -1.000000000000000000 ) ) ;
#110 = DIRECTION ( 'NONE',  ( 1.000000000000000000, 0.0000000000000000000, -3.854941057726242633E-15 ) ) ;
#111 = PRODUCT_RELATED_PRODUCT_CATEGORY ( 'detail', '', ( #6 ) ) ;
#112 = LOCAL_TIME ( 9, 5, 57.00000000000000000, #173 ) ;
#113 = DIRECTION ( 'NONE',  ( -3.491481338843133355E-15, 1.224646799147353207E-16, -1.000000000000000000 ) ) ;
#114 = CARTESIAN_POINT ( 'NONE',  ( -1.710332578358783092E-30, 0.0000000000000000000, -4.898587196589412829E-16 ) ) ;
#115 = CIRCLE ( 'NONE', #152, 2.000000000000000000 ) ;
#116 = CALENDAR_DATE ( 2021, 15, 11 ) ;
#117 = VERTEX_POINT ( 'NONE', #89 ) ;
#118 = DATE_AND_TIME ( #119, #196 ) ;
#119 = CALENDAR_DATE ( 2021, 15, 11 ) ;
#120 = SECURITY_CLASSIFICATION ( '', '', #83 ) ;
#121 = PERSON ( 'UNSPECIFIED', 'UNSPECIFIED', 'UNSPECIFIED', ('UNSPECIFIED'), ('UNSPECIFIED'), ('UNSPECIFIED') ) ;
#122 = ADVANCED_FACE ( 'NONE', ( #94, #37 ), #75, .T. ) ;
#123 = CIRCLE ( 'NONE', #4, 0.4499999999999994560 ) ;
#124 = ORIENTED_EDGE ( 'NONE', *, *, #224, .F. ) ;
#125 = CC_DESIGN_APPROVAL ( #217, ( #176 ) ) ;
#126 = PLANE ( 'NONE',  #103 ) ;
#127 = DIRECTION ( 'NONE',  ( 1.000000000000000000, 0.0000000000000000000, -3.491481338843132961E-15 ) ) ;
#128 = CC_DESIGN_PERSON_AND_ORGANIZATION_ASSIGNMENT ( #47, #136, ( #176 ) ) ;
#129 = DIRECTION ( 'NONE',  ( 0.0000000000000000000, 1.000000000000000000, 0.0000000000000000000 ) ) ;
#130 = DIRECTION ( 'NONE',  ( 4.275831445896958607E-31, 1.000000000000000000, 1.224646799147353207E-16 ) ) ;
#131 = EDGE_CURVE ( 'NONE', #100, #100, #158, .T. ) ;
#132 = CARTESIAN_POINT ( 'NONE',  ( 8.790286409911519936E-15, 0.0000000000000000000, 2.517638090205027712 ) ) ;
#133 = PRODUCT_DEFINITION_SHAPE ( 'NONE', 'NONE',  #144 ) ;
#134 = CALENDAR_DATE ( 2021, 15, 11 ) ;
#135 = APPLICATION_PROTOCOL_DEFINITION ( 'international standard', 'config_control_design', 1994, #164 ) ;
#136 = PERSON_AND_ORGANIZATION_ROLE ( 'design_supplier' ) ;
#137 = MANIFOLD_SOLID_BREP ( 'Corps-Déplacer/Copier1[2]', #49 ) ;
#138 = EDGE_CURVE ( 'NONE', #11, #11, #35, .T. ) ;
#139 = SHAPE_DEFINITION_REPRESENTATION ( #133, #68 ) ;
#140 = VERTEX_POINT ( 'NONE', #52 ) ;
#141 = MANIFOLD_SOLID_BREP ( 'Corps-Déplacer/Copier1[1]', #230 ) ;
#142 = DIRECTION ( 'NONE',  ( 4.275831445896958607E-31, 1.000000000000000000, 1.224646799147353207E-16 ) ) ;
#143 = EDGE_LOOP ( 'NONE', ( #160 ) ) ;
#144 = PRODUCT_DEFINITION ( 'UNKNOWN', '', #176, #31 ) ;
#145 = ORIENTED_EDGE ( 'NONE', *, *, #138, .F. ) ;
#146 = PLANE ( 'NONE',  #235 ) ;
#147 = AXIS2_PLACEMENT_3D ( 'NONE', #114, #1, #127 ) ;
#148 = DIRECTION ( 'NONE',  ( 3.491481338843133355E-15, -1.224646799147353207E-16, 1.000000000000000000 ) ) ;
#149 = CC_DESIGN_DATE_AND_TIME_ASSIGNMENT ( #85, #104, ( #120 ) ) ;
#150 = FACE_OUTER_BOUND ( 'NONE', #12, .T. ) ;
#151 = DIRECTION ( 'NONE',  ( 1.000000000000000000, 0.0000000000000000000, -3.854941057726242633E-15 ) ) ;
#152 = AXIS2_PLACEMENT_3D ( 'NONE', #194, #87, #174 ) ;
#153 = DIRECTION ( 'NONE',  ( 0.0000000000000000000, 1.000000000000000000, 0.0000000000000000000 ) ) ;
#154 = LOCAL_TIME ( 9, 5, 57.00000000000000000, #48 ) ;
#155 = CC_DESIGN_DATE_AND_TIME_ASSIGNMENT ( #65, #8, ( #144 ) ) ;
#156 = APPROVAL_ROLE ( '' ) ;
#157 = CALENDAR_DATE ( 2021, 15, 11 ) ;
#158 = CIRCLE ( 'NONE', #171, 0.4499999999999994560 ) ;
#159 = DATE_AND_TIME ( #7, #82 ) ;
#160 = ORIENTED_EDGE ( 'NONE', *, *, #33, .T. ) ;
#161 = ORIENTED_EDGE ( 'NONE', *, *, #131, .T. ) ;
#162 = APPROVAL ( #63, 'UNSPECIFIED' ) ;
#163 = EDGE_LOOP ( 'NONE', ( #32 ) ) ;
#164 = APPLICATION_CONTEXT ( 'configuration controlled 3d designs of mechanical parts and assemblies' ) ;
#165 = ADVANCED_FACE ( 'NONE', ( #73 ), #146, .F. ) ;
#166 = DIRECTION ( 'NONE',  ( 1.000000000000000000, 0.0000000000000000000, -3.491481338843133355E-15 ) ) ;
#167 = CIRCLE ( 'NONE', #147, 0.4499999999999999001 ) ;
#168 = DIRECTION ( 'NONE',  ( -4.275831445896958607E-31, -1.000000000000000000, -1.224646799147353207E-16 ) ) ;
#169 = FACE_OUTER_BOUND ( 'NONE', #105, .T. ) ;
#170 = DIRECTION ( 'NONE',  ( -3.491481338843133355E-15, 1.224646799147353207E-16, -1.000000000000000000 ) ) ;
#171 = AXIS2_PLACEMENT_3D ( 'NONE', #186, #221, #151 ) ;
#172 = ADVANCED_FACE ( 'NONE', ( #184, #223 ), #14, .T. ) ;
#173 = COORDINATED_UNIVERSAL_TIME_OFFSET ( 1, 0, .AHEAD. ) ;
#174 = DIRECTION ( 'NONE',  ( 1.000000000000000000, 0.0000000000000000000, -3.469446951953614189E-15 ) ) ;
#175 = ORIENTED_EDGE ( 'NONE', *, *, #72, .F. ) ;
#176 = PRODUCT_DEFINITION_FORMATION_WITH_SPECIFIED_SOURCE ( 'ANY', '', #6, .NOT_KNOWN. ) ;
#177 = ORIENTED_EDGE ( 'NONE', *, *, #72, .T. ) ;
#178 = DIRECTION ( 'NONE',  ( 1.000000000000000000, 0.0000000000000000000, 0.0000000000000000000 ) ) ;
#179 = APPROVAL ( #229, 'UNSPECIFIED' ) ;
#180 = ORIENTED_EDGE ( 'NONE', *, *, #79, .T. ) ;
#181 = ORIENTED_EDGE ( 'NONE', *, *, #33, .F. ) ;
#182 = CARTESIAN_POINT ( 'NONE',  ( 1.326762908760390675E-13, -4.653657836759942730E-15, 38.00000000000000711 ) ) ;
#183 = FACE_BOUND ( 'NONE', #143, .T. ) ;
#184 = FACE_OUTER_BOUND ( 'NONE', #36, .T. ) ;
#185 = AXIS2_PLACEMENT_3D ( 'NONE', #95, #97, #166 ) ;
#186 = CARTESIAN_POINT ( 'NONE',  ( 6.982962677686261977E-15, 0.0000000000000000000, 1.999999999999998668 ) ) ;
#187 = CARTESIAN_POINT ( 'NONE',  ( 6.982962677686266711E-15, -4.336808689942017243E-16, 2.000000000000000000 ) ) ;
#188 = CONICAL_SURFACE ( 'NONE', #226, 1.999999999999999556, 0.7853981633974485010 ) ;
#189 = CARTESIAN_POINT ( 'NONE',  ( 0.5181483474218686602, 0.0000000000000000000, 2.517638090205026380 ) ) ;
#190 = ADVANCED_FACE ( 'NONE', ( #243, #222 ), #188, .T. ) ;
#191 = VERTEX_POINT ( 'NONE', #238 ) ;
#192 = PERSON_AND_ORGANIZATION ( #121, #208 ) ;
#193 = PERSON_AND_ORGANIZATION ( #121, #208 ) ;
#194 = CARTESIAN_POINT ( 'NONE',  ( 2.809938506763757313E-14, 0.0000000000000000000, 8.047983746906698599 ) ) ;
#195 = CC_DESIGN_APPROVAL ( #162, ( #144 ) ) ;
#196 = LOCAL_TIME ( 9, 5, 57.00000000000000000, #211 ) ;
#197 = CARTESIAN_POINT ( 'NONE',  ( 0.0000000000000000000, 0.0000000000000000000, 0.0000000000000000000 ) ) ;
#198 = ADVANCED_FACE ( 'NONE', ( #206 ), #204, .T. ) ;
#199 = FACE_OUTER_BOUND ( 'NONE', #53, .T. ) ;
#200 = EDGE_LOOP ( 'NONE', ( #239 ) ) ;
#201 =( GEOMETRIC_REPRESENTATION_CONTEXT ( 3 ) GLOBAL_UNCERTAINTY_ASSIGNED_CONTEXT ( ( #70 ) ) GLOBAL_UNIT_ASSIGNED_CONTEXT ( ( #78, #20, #22 ) ) REPRESENTATION_CONTEXT ( 'NONE', 'WORKASPACE' ) );
#202 = PLANE ( 'NONE',  #80 ) ;
#203 = DIRECTION ( 'NONE',  ( 3.491481338843133355E-15, -1.224646799147353207E-16, 1.000000000000000000 ) ) ;
#204 = PLANE ( 'NONE',  #55 ) ;
#205 = CC_DESIGN_PERSON_AND_ORGANIZATION_ASSIGNMENT ( #231, #210, ( #6 ) ) ;
#206 = FACE_OUTER_BOUND ( 'NONE', #237, .T. ) ;
#207 = DIRECTION ( 'NONE',  ( 3.491481338843133355E-15, -0.0000000000000000000, 1.000000000000000000 ) ) ;
#208 = ORGANIZATION ( 'UNSPECIFIED', 'UNSPECIFIED', '' ) ;
#209 = VERTEX_POINT ( 'NONE', #189 ) ;
#210 = PERSON_AND_ORGANIZATION_ROLE ( 'design_owner' ) ;
#211 = COORDINATED_UNIVERSAL_TIME_OFFSET ( 1, 0, .AHEAD. ) ;
#212 = APPROVAL_DATE_TIME ( #9, #162 ) ;
#213 = AXIS2_PLACEMENT_3D ( 'NONE', #2, #227, #13 ) ;
#214 = COORDINATED_UNIVERSAL_TIME_OFFSET ( 1, 0, .AHEAD. ) ;
#215 = APPLICATION_CONTEXT ( 'configuration controlled 3d designs of mechanical parts and assemblies' ) ;
#216 = ORIENTED_EDGE ( 'NONE', *, *, #131, .F. ) ;
#217 = APPROVAL ( #51, 'UNSPECIFIED' ) ;
#218 = CARTESIAN_POINT ( 'NONE',  ( 1.326762908760390675E-13, 1.599999999999997202, 38.00000000000000711 ) ) ;
#219 = EDGE_LOOP ( 'NONE', ( #54 ) ) ;
#220 = CC_DESIGN_SECURITY_CLASSIFICATION ( #120, ( #176 ) ) ;
#221 = DIRECTION ( 'NONE',  ( 3.491481338843133355E-15, -0.0000000000000000000, 1.000000000000000000 ) ) ;
#222 = FACE_OUTER_BOUND ( 'NONE', #34, .T. ) ;
#223 = FACE_OUTER_BOUND ( 'NONE', #200, .T. ) ;
#224 = EDGE_CURVE ( 'NONE', #191, #191, #115, .T. ) ;
#225 = CARTESIAN_POINT ( 'NONE',  ( 6.982962677686266711E-15, -4.336808689942017243E-16, 2.000000000000000000 ) ) ;
#226 = AXIS2_PLACEMENT_3D ( 'NONE', #57, #59, #129 ) ;
#227 = DIRECTION ( 'NONE',  ( 3.491481338843133355E-15, -0.0000000000000000000, 1.000000000000000000 ) ) ;
#228 = CARTESIAN_POINT ( 'NONE',  ( 1.312796983405018394E-13, 1.999999999999994893, 37.60000000000000853 ) ) ;
#229 = APPROVAL_STATUS ( 'not_yet_approved' ) ;
#230 = CLOSED_SHELL ( 'NONE', ( #122, #190, #165, #10, #93, #50 ) ) ;
#231 = PERSON_AND_ORGANIZATION ( #121, #208 ) ;
#232 = PERSON_AND_ORGANIZATION_ROLE ( 'classification_officer' ) ;
#233 = CC_DESIGN_PERSON_AND_ORGANIZATION_ASSIGNMENT ( #102, #45, ( #144 ) ) ;
#234 = PERSON_AND_ORGANIZATION ( #121, #208 ) ;
#235 = AXIS2_PLACEMENT_3D ( 'NONE', #56, #109, #130 ) ;
#236 = APPROVAL_DATE_TIME ( #159, #179 ) ;
#237 = EDGE_LOOP ( 'NONE', ( #29 ) ) ;
#238 = CARTESIAN_POINT ( 'NONE',  ( 2.000000000000028422, 0.0000000000000000000, 8.047983746906691493 ) ) ;
#239 = ORIENTED_EDGE ( 'NONE', *, *, #79, .F. ) ;
#240 = CIRCLE ( 'NONE', #17, 1.600000000000001865 ) ;
#241 = ORIENTED_EDGE ( 'NONE', *, *, #15, .T. ) ;
#242 = DIRECTION ( 'NONE',  ( -3.491481338843133355E-15, 1.224646799147353207E-16, -1.000000000000000000 ) ) ;
#243 = FACE_BOUND ( 'NONE', #88, .T. ) ;
ENDSEC;
END-ISO-10303-21;
