ISO-10303-21;
HEADER;
FILE_DESCRIPTION (( 'STEP AP203' ),
    '1' );
FILE_NAME ('334948.step',
    '2021-11-15T08:05:57',
    ( '' ),
    ( '' ),
    'SwSTEP 2.0',
    'SolidWorks 2019',
    '' );
FILE_SCHEMA (( 'CONFIG_CONTROL_DESIGN' ));
ENDSEC;

DATA;
#1 = VERTEX_POINT ( 'NONE', #120 ) ;
#2 = AXIS2_PLACEMENT_3D ( 'NONE', #233, #80, #143 ) ;
#3 = APPROVAL_STATUS ( 'not_yet_approved' ) ;
#4 = CC_DESIGN_DATE_AND_TIME_ASSIGNMENT ( #35, #192, ( #242 ) ) ;
#5 =( NAMED_UNIT ( * ) SI_UNIT ( $, .STERADIAN. ) SOLID_ANGLE_UNIT ( ) );
#6 = PERSON_AND_ORGANIZATION ( #207, #205 ) ;
#7 = ADVANCED_FACE ( 'NONE', ( #87, #148 ), #182, .T. ) ;
#8 = PERSON_AND_ORGANIZATION_ROLE ( 'design_owner' ) ;
#9 = CARTESIAN_POINT ( 'NONE',  ( 0.4000000000000056288, 0.0000000000000000000, 1.799999999999998046 ) ) ;
#10 = ORIENTED_EDGE ( 'NONE', *, *, #160, .F. ) ;
#11 = ORIENTED_EDGE ( 'NONE', *, *, #68, .T. ) ;
#12 = EDGE_LOOP ( 'NONE', ( #139 ) ) ;
#13 = ADVANCED_BREP_SHAPE_REPRESENTATION ( '334948', ( #57, #206, #154 ), #83 ) ;
#14 = AXIS2_PLACEMENT_3D ( 'NONE', #235, #203, #64 ) ;
#15 = ORIENTED_EDGE ( 'NONE', *, *, #54, .T. ) ;
#16 = DATE_AND_TIME ( #55, #138 ) ;
#17 = DIRECTION ( 'NONE',  ( -3.491481338843133355E-15, 1.224646799147353207E-16, -1.000000000000000000 ) ) ;
#18 = DIRECTION ( 'NONE',  ( 1.000000000000000000, 0.0000000000000000000, -3.705499518539592111E-15 ) ) ;
#19 = SECURITY_CLASSIFICATION_LEVEL ( 'unclassified' ) ;
#20 = FACE_OUTER_BOUND ( 'NONE', #31, .T. ) ;
#21 = AXIS2_PLACEMENT_3D ( 'NONE', #84, #116, #100 ) ;
#22 = ORIENTED_EDGE ( 'NONE', *, *, #103, .F. ) ;
#23 = EDGE_LOOP ( 'NONE', ( #10 ) ) ;
#24 = CARTESIAN_POINT ( 'NONE',  ( 1.326762908760390675E-13, 1.599999999999997202, 38.00000000000000711 ) ) ;
#25 = APPROVAL_PERSON_ORGANIZATION ( #161, #105, #237 ) ;
#26 = ADVANCED_FACE ( 'NONE', ( #239, #118 ), #243, .T. ) ;
#27 = PRODUCT_DEFINITION_FORMATION_WITH_SPECIFIED_SOURCE ( 'ANY', '', #197, .NOT_KNOWN. ) ;
#28 =( NAMED_UNIT ( * ) PLANE_ANGLE_UNIT ( ) SI_UNIT ( $, .RADIAN. ) );
#29 = PRODUCT_DEFINITION_SHAPE ( 'NONE', 'NONE',  #156 ) ;
#30 = CC_DESIGN_DATE_AND_TIME_ASSIGNMENT ( #93, #157, ( #156 ) ) ;
#31 = EDGE_LOOP ( 'NONE', ( #76 ) ) ;
#32 = CIRCLE ( 'NONE', #179, 0.3999999999999993006 ) ;
#33 = DIRECTION ( 'NONE',  ( 1.000000000000000000, 0.0000000000000000000, -3.252606517456518824E-15 ) ) ;
#34 = DIRECTION ( 'NONE',  ( 3.491481338843133355E-15, -0.0000000000000000000, 1.000000000000000000 ) ) ;
#35 = DATE_AND_TIME ( #129, #42 ) ;
#36 = CARTESIAN_POINT ( 'NONE',  ( 6.284666409917639251E-15, -1.951563910473907735E-16, 1.799999999999999822 ) ) ;
#37 = PERSON_AND_ORGANIZATION ( #207, #205 ) ;
#38 = AXIS2_PLACEMENT_3D ( 'NONE', #163, #167, #18 ) ;
#39 = CARTESIAN_POINT ( 'NONE',  ( 1.312796983405018394E-13, -4.604671964794048513E-15, 37.60000000000000853 ) ) ;
#40 = DIRECTION ( 'NONE',  ( 3.491481338843133355E-15, -0.0000000000000000000, 1.000000000000000000 ) ) ;
#41 = EDGE_CURVE ( 'NONE', #152, #152, #52, .T. ) ;
#42 = LOCAL_TIME ( 9, 5, 57.00000000000000000, #115 ) ;
#43 = CARTESIAN_POINT ( 'NONE',  ( 2.000000000000028422, 0.0000000000000000000, 8.034586287285140571 ) ) ;
#44 = DIRECTION ( 'NONE',  ( -4.275831445896958607E-31, -1.000000000000000000, -1.224646799147353207E-16 ) ) ;
#45 = APPROVAL ( #145, 'UNSPECIFIED' ) ;
#46 = AXIS2_PLACEMENT_3D ( 'NONE', #147, #119, #78 ) ;
#47 = APPLICATION_PROTOCOL_DEFINITION ( 'international standard', 'config_control_design', 1994, #241 ) ;
#48 = ORIENTED_EDGE ( 'NONE', *, *, #54, .F. ) ;
#49 = PERSON_AND_ORGANIZATION ( #207, #205 ) ;
#50 = EDGE_LOOP ( 'NONE', ( #11 ) ) ;
#51 = PLANE ( 'NONE',  #168 ) ;
#52 = CIRCLE ( 'NONE', #91, 0.4000000000000001887 ) ;
#53 = APPROVAL_PERSON_ORGANIZATION ( #92, #202, #155 ) ;
#54 = EDGE_CURVE ( 'NONE', #226, #226, #144, .T. ) ;
#55 = CALENDAR_DATE ( 2021, 15, 11 ) ;
#56 = EDGE_LOOP ( 'NONE', ( #229 ) ) ;
#57 = MANIFOLD_SOLID_BREP ( 'Corps-Déplacer/Copier1[1]', #125 ) ;
#58 = CARTESIAN_POINT ( 'NONE',  ( -1.710332578358783092E-30, 0.0000000000000000000, -4.898587196589412829E-16 ) ) ;
#59 = PERSON_AND_ORGANIZATION_ROLE ( 'design_supplier' ) ;
#60 = DIRECTION ( 'NONE',  ( 3.491481338843133355E-15, -0.0000000000000000000, 1.000000000000000000 ) ) ;
#61 = APPROVAL_ROLE ( '' ) ;
#62 = PLANE ( 'NONE',  #188 ) ;
#63 = UNCERTAINTY_MEASURE_WITH_UNIT (LENGTH_MEASURE( 1.000000000000000082E-05 ), #69, 'distance_accuracy_value', 'NONE');
#64 = DIRECTION ( 'NONE',  ( 1.000000000000000000, 0.0000000000000000000, -3.491481338843133750E-15 ) ) ;
#65 = CARTESIAN_POINT ( 'NONE',  ( 6.284666409917637673E-15, 0.0000000000000000000, 1.799999999999999378 ) ) ;
#66 = DIRECTION ( 'NONE',  ( 4.275831445896958607E-31, 1.000000000000000000, 1.224646799147353207E-16 ) ) ;
#67 = CARTESIAN_POINT ( 'NONE',  ( 0.0000000000000000000, 0.0000000000000000000, 0.0000000000000000000 ) ) ;
#68 = EDGE_CURVE ( 'NONE', #1, #1, #111, .T. ) ;
#69 =( LENGTH_UNIT ( ) NAMED_UNIT ( * ) SI_UNIT ( .MILLI., .METRE. ) );
#70 = CIRCLE ( 'NONE', #136, 2.000000000000000000 ) ;
#71 = CC_DESIGN_SECURITY_CLASSIFICATION ( #242, ( #27 ) ) ;
#72 = EDGE_LOOP ( 'NONE', ( #110 ) ) ;
#73 = AXIS2_PLACEMENT_3D ( 'NONE', #77, #222, #66 ) ;
#74 = PRODUCT_RELATED_PRODUCT_CATEGORY ( 'detail', '', ( #197 ) ) ;
#75 = COORDINATED_UNIVERSAL_TIME_OFFSET ( 1, 0, .AHEAD. ) ;
#76 = ORIENTED_EDGE ( 'NONE', *, *, #193, .F. ) ;
#77 = CARTESIAN_POINT ( 'NONE',  ( -4.275831445896957731E-31, 1.499759782661857608E-32, -1.224646799147353207E-16 ) ) ;
#78 = DIRECTION ( 'NONE',  ( 0.0000000000000000000, 1.000000000000000000, 0.0000000000000000000 ) ) ;
#79 = APPROVAL_STATUS ( 'not_yet_approved' ) ;
#80 = DIRECTION ( 'NONE',  ( -3.491481338843133355E-15, 1.224646799147353207E-16, -1.000000000000000000 ) ) ;
#81 = COORDINATED_UNIVERSAL_TIME_OFFSET ( 1, 0, .AHEAD. ) ;
#82 = ADVANCED_FACE ( 'NONE', ( #94, #191 ), #153, .T. ) ;
#83 =( GEOMETRIC_REPRESENTATION_CONTEXT ( 3 ) GLOBAL_UNCERTAINTY_ASSIGNED_CONTEXT ( ( #63 ) ) GLOBAL_UNIT_ASSIGNED_CONTEXT ( ( #69, #28, #5 ) ) REPRESENTATION_CONTEXT ( 'NONE', 'WORKASPACE' ) );
#84 = CARTESIAN_POINT ( 'NONE',  ( 0.0000000000000000000, 0.0000000000000000000, 0.0000000000000000000 ) ) ;
#85 = DIRECTION ( 'NONE',  ( -4.275831445896958607E-31, -1.000000000000000000, -1.224646799147353207E-16 ) ) ;
#86 = CC_DESIGN_PERSON_AND_ORGANIZATION_ASSIGNMENT ( #169, #8, ( #197 ) ) ;
#87 = FACE_OUTER_BOUND ( 'NONE', #50, .T. ) ;
#88 = CALENDAR_DATE ( 2021, 15, 11 ) ;
#89 = DIRECTION ( 'NONE',  ( 0.0000000000000000000, 0.0000000000000000000, 1.000000000000000000 ) ) ;
#90 = CIRCLE ( 'NONE', #38, 0.4681483474218597896 ) ;
#91 = AXIS2_PLACEMENT_3D ( 'NONE', #58, #40, #114 ) ;
#92 = PERSON_AND_ORGANIZATION ( #207, #205 ) ;
#93 = DATE_AND_TIME ( #107, #135 ) ;
#94 = FACE_BOUND ( 'NONE', #180, .T. ) ;
#95 = FACE_OUTER_BOUND ( 'NONE', #174, .T. ) ;
#96 = FACE_BOUND ( 'NONE', #56, .T. ) ;
#97 = ADVANCED_FACE ( 'NONE', ( #217 ), #62, .T. ) ;
#98 = CARTESIAN_POINT ( 'NONE',  ( 1.326762908760390675E-13, -4.653657836759942730E-15, 38.00000000000000711 ) ) ;
#99 = CC_DESIGN_APPROVAL ( #105, ( #242 ) ) ;
#100 = DIRECTION ( 'NONE',  ( 4.275831445896958607E-31, 1.000000000000000000, 1.224646799147353207E-16 ) ) ;
#101 = FACE_OUTER_BOUND ( 'NONE', #214, .T. ) ;
#102 = VERTEX_POINT ( 'NONE', #9 ) ;
#103 = EDGE_CURVE ( 'NONE', #102, #102, #32, .T. ) ;
#104 = CIRCLE ( 'NONE', #208, 0.3999999999999993006 ) ;
#105 = APPROVAL ( #79, 'UNSPECIFIED' ) ;
#106 = DIRECTION ( 'NONE',  ( 1.000000000000000000, 0.0000000000000000000, 0.0000000000000000000 ) ) ;
#107 = CALENDAR_DATE ( 2021, 15, 11 ) ;
#108 = LOCAL_TIME ( 9, 5, 57.00000000000000000, #75 ) ;
#109 = ORIENTED_EDGE ( 'NONE', *, *, #41, .T. ) ;
#110 = ORIENTED_EDGE ( 'NONE', *, *, #68, .F. ) ;
#111 = CIRCLE ( 'NONE', #46, 1.999999999999999556 ) ;
#112 = EDGE_CURVE ( 'NONE', #221, #221, #90, .T. ) ;
#113 = FACE_OUTER_BOUND ( 'NONE', #126, .T. ) ;
#114 = DIRECTION ( 'NONE',  ( 1.000000000000000000, 0.0000000000000000000, -3.491481338843132566E-15 ) ) ;
#115 = COORDINATED_UNIVERSAL_TIME_OFFSET ( 1, 0, .AHEAD. ) ;
#116 = DIRECTION ( 'NONE',  ( -3.491481338843133355E-15, 1.224646799147353207E-16, -1.000000000000000000 ) ) ;
#117 = DATE_AND_TIME ( #196, #175 ) ;
#118 = FACE_OUTER_BOUND ( 'NONE', #23, .T. ) ;
#119 = DIRECTION ( 'NONE',  ( -3.491481338843133355E-15, 1.224646799147353207E-16, -1.000000000000000000 ) ) ;
#120 = CARTESIAN_POINT ( 'NONE',  ( 1.312796983405018394E-13, 1.999999999999994893, 37.60000000000000853 ) ) ;
#121 = ADVANCED_FACE ( 'NONE', ( #95, #128 ), #173, .F. ) ;
#122 = CLOSED_SHELL ( 'NONE', ( #97, #26, #238 ) ) ;
#123 = PERSON_AND_ORGANIZATION_ROLE ( 'creator' ) ;
#124 = CARTESIAN_POINT ( 'NONE',  ( 0.4000000000000001887, 0.0000000000000000000, -1.886451255196195118E-15 ) ) ;
#125 = CLOSED_SHELL ( 'NONE', ( #7, #82, #181, #121, #127, #223 ) ) ;
#126 = EDGE_LOOP ( 'NONE', ( #48 ) ) ;
#127 = ADVANCED_FACE ( 'NONE', ( #20, #96 ), #172, .T. ) ;
#128 = FACE_OUTER_BOUND ( 'NONE', #216, .T. ) ;
#129 = CALENDAR_DATE ( 2021, 15, 11 ) ;
#130 = DIRECTION ( 'NONE',  ( 1.000000000000000000, 0.0000000000000000000, -3.469446951953614189E-15 ) ) ;
#131 = PERSON_AND_ORGANIZATION ( #207, #205 ) ;
#132 = DIRECTION ( 'NONE',  ( 1.000000000000000000, 0.0000000000000000000, -3.491481338843133750E-15 ) ) ;
#133 = DIRECTION ( 'NONE',  ( 3.491481338843133355E-15, -0.0000000000000000000, 1.000000000000000000 ) ) ;
#134 = DATE_AND_TIME ( #88, #108 ) ;
#135 = LOCAL_TIME ( 9, 5, 57.00000000000000000, #185 ) ;
#136 = AXIS2_PLACEMENT_3D ( 'NONE', #218, #60, #130 ) ;
#137 = ORIENTED_EDGE ( 'NONE', *, *, #41, .F. ) ;
#138 = LOCAL_TIME ( 9, 5, 57.00000000000000000, #240 ) ;
#139 = ORIENTED_EDGE ( 'NONE', *, *, #193, .T. ) ;
#140 = CC_DESIGN_PERSON_AND_ORGANIZATION_ASSIGNMENT ( #131, #162, ( #242 ) ) ;
#141 = PERSON_AND_ORGANIZATION_ROLE ( 'creator' ) ;
#142 = CARTESIAN_POINT ( 'NONE',  ( 5.411337958786408160E-14, 0.0000000000000000000, 15.49868790242310013 ) ) ;
#143 = DIRECTION ( 'NONE',  ( 4.275831445896958607E-31, 1.000000000000000000, 1.224646799147353207E-16 ) ) ;
#144 = CIRCLE ( 'NONE', #149, 1.600000000000001865 ) ;
#145 = APPROVAL_STATUS ( 'not_yet_approved' ) ;
#146 = CARTESIAN_POINT ( 'NONE',  ( 6.284666409917638462E-15, 0.0000000000000000000, 1.799999999999999600 ) ) ;
#147 = CARTESIAN_POINT ( 'NONE',  ( 1.312796983405018394E-13, -4.604671964794048513E-15, 37.60000000000000853 ) ) ;
#148 = FACE_OUTER_BOUND ( 'NONE', #12, .T. ) ;
#149 = AXIS2_PLACEMENT_3D ( 'NONE', #98, #17, #231 ) ;
#150 = VERTEX_POINT ( 'NONE', #43 ) ;
#151 = APPLICATION_CONTEXT ( 'configuration controlled 3d designs of mechanical parts and assemblies' ) ;
#152 = VERTEX_POINT ( 'NONE', #124 ) ;
#153 = CONICAL_SURFACE ( 'NONE', #170, 1.999999999999999556, 0.7853981633974485010 ) ;
#154 = AXIS2_PLACEMENT_3D ( 'NONE', #67, #89, #106 ) ;
#155 = APPROVAL_ROLE ( '' ) ;
#156 = PRODUCT_DEFINITION ( 'UNKNOWN', '', #27, #199 ) ;
#157 = DATE_TIME_ROLE ( 'creation_date' ) ;
#158 = EDGE_LOOP ( 'NONE', ( #137 ) ) ;
#159 = ORIENTED_EDGE ( 'NONE', *, *, #103, .T. ) ;
#160 = EDGE_CURVE ( 'NONE', #224, #224, #104, .T. ) ;
#161 = PERSON_AND_ORGANIZATION ( #207, #205 ) ;
#162 = PERSON_AND_ORGANIZATION_ROLE ( 'classification_officer' ) ;
#163 = CARTESIAN_POINT ( 'NONE',  ( 8.091990142142894843E-15, 0.0000000000000000000, 2.317638090205028423 ) ) ;
#164 = APPROVAL_DATE_TIME ( #16, #105 ) ;
#165 = CARTESIAN_POINT ( 'NONE',  ( 6.284666409917637673E-15, 0.0000000000000000000, 1.799999999999999378 ) ) ;
#166 = DIRECTION ( 'NONE',  ( 3.491481338843133355E-15, -0.0000000000000000000, 1.000000000000000000 ) ) ;
#167 = DIRECTION ( 'NONE',  ( 3.491481338843133355E-15, -0.0000000000000000000, 1.000000000000000000 ) ) ;
#168 = AXIS2_PLACEMENT_3D ( 'NONE', #228, #204, #44 ) ;
#169 = PERSON_AND_ORGANIZATION ( #207, #205 ) ;
#170 = AXIS2_PLACEMENT_3D ( 'NONE', #39, #220, #219 ) ;
#171 = APPLICATION_PROTOCOL_DEFINITION ( 'international standard', 'config_control_design', 1994, #151 ) ;
#172 = CONICAL_SURFACE ( 'NONE', #201, 4.000000000000000000, 0.2617993877991428020 ) ;
#173 = TOROIDAL_SURFACE ( 'NONE', #215, 2.400000000000000799, 2.000000000000000888 ) ;
#174 = EDGE_LOOP ( 'NONE', ( #159 ) ) ;
#175 = LOCAL_TIME ( 9, 5, 57.00000000000000000, #81 ) ;
#176 = PLANE ( 'NONE',  #2 ) ;
#177 = DIRECTION ( 'NONE',  ( 1.000000000000000000, 0.0000000000000000000, -3.252606517456518824E-15 ) ) ;
#178 = DIRECTION ( 'NONE',  ( 3.491481338843133355E-15, -0.0000000000000000000, 1.000000000000000000 ) ) ;
#179 = AXIS2_PLACEMENT_3D ( 'NONE', #65, #34, #177 ) ;
#180 = EDGE_LOOP ( 'NONE', ( #15 ) ) ;
#181 = ADVANCED_FACE ( 'NONE', ( #113 ), #176, .F. ) ;
#182 = CYLINDRICAL_SURFACE ( 'NONE', #21, 2.000000000000000000 ) ;
#183 = MECHANICAL_CONTEXT ( 'NONE', #241, 'mechanical' ) ;
#184 = PLANE ( 'NONE',  #73 ) ;
#185 = COORDINATED_UNIVERSAL_TIME_OFFSET ( 1, 0, .AHEAD. ) ;
#186 = CARTESIAN_POINT ( 'NONE',  ( 0.4000000000000056288, 0.0000000000000000000, 1.799999999999998046 ) ) ;
#187 = APPROVAL_PERSON_ORGANIZATION ( #6, #45, #61 ) ;
#188 = AXIS2_PLACEMENT_3D ( 'NONE', #36, #194, #85 ) ;
#189 = EDGE_LOOP ( 'NONE', ( #109 ) ) ;
#190 = SHAPE_DEFINITION_REPRESENTATION ( #29, #13 ) ;
#191 = FACE_OUTER_BOUND ( 'NONE', #72, .T. ) ;
#192 = DATE_TIME_ROLE ( 'classification_date' ) ;
#193 = EDGE_CURVE ( 'NONE', #150, #150, #70, .T. ) ;
#194 = DIRECTION ( 'NONE',  ( 3.491481338843133355E-15, -1.224646799147353207E-16, 1.000000000000000000 ) ) ;
#195 = PERSON_AND_ORGANIZATION ( #207, #205 ) ;
#196 = CALENDAR_DATE ( 2021, 15, 11 ) ;
#197 = PRODUCT ( '334948', '334948', '', ( #183 ) ) ;
#198 = ORIENTED_EDGE ( 'NONE', *, *, #160, .T. ) ;
#199 = DESIGN_CONTEXT ( 'detailed design', #151, 'design' ) ;
#200 = DIRECTION ( 'NONE',  ( 1.000000000000000000, 0.0000000000000000000, -3.469446951953614189E-15 ) ) ;
#201 = AXIS2_PLACEMENT_3D ( 'NONE', #142, #166, #200 ) ;
#202 = APPROVAL ( #3, 'UNSPECIFIED' ) ;
#203 = DIRECTION ( 'NONE',  ( 3.491481338843133355E-15, -0.0000000000000000000, 1.000000000000000000 ) ) ;
#204 = DIRECTION ( 'NONE',  ( 3.491481338843133355E-15, -1.224646799147353207E-16, 1.000000000000000000 ) ) ;
#205 = ORGANIZATION ( 'UNSPECIFIED', 'UNSPECIFIED', '' ) ;
#206 = MANIFOLD_SOLID_BREP ( 'Corps-Déplacer/Copier1[2]', #122 ) ;
#207 = PERSON ( 'UNSPECIFIED', 'UNSPECIFIED', 'UNSPECIFIED', ('UNSPECIFIED'), ('UNSPECIFIED'), ('UNSPECIFIED') ) ;
#208 = AXIS2_PLACEMENT_3D ( 'NONE', #165, #133, #33 ) ;
#209 = CARTESIAN_POINT ( 'NONE',  ( 0.4681483474218678387, 0.0000000000000000000, 2.317638090205026646 ) ) ;
#210 = APPROVAL_DATE_TIME ( #134, #202 ) ;
#211 = EDGE_LOOP ( 'NONE', ( #198 ) ) ;
#212 = FACE_OUTER_BOUND ( 'NONE', #158, .T. ) ;
#213 = CC_DESIGN_PERSON_AND_ORGANIZATION_ASSIGNMENT ( #37, #141, ( #27 ) ) ;
#214 = EDGE_LOOP ( 'NONE', ( #22 ) ) ;
#215 = AXIS2_PLACEMENT_3D ( 'NONE', #146, #178, #132 ) ;
#216 = EDGE_LOOP ( 'NONE', ( #227 ) ) ;
#217 = FACE_OUTER_BOUND ( 'NONE', #211, .T. ) ;
#218 = CARTESIAN_POINT ( 'NONE',  ( 2.805260808738102285E-14, 0.0000000000000000000, 8.034586287285147677 ) ) ;
#219 = DIRECTION ( 'NONE',  ( 0.0000000000000000000, 1.000000000000000000, 0.0000000000000000000 ) ) ;
#220 = DIRECTION ( 'NONE',  ( -3.491481338843133355E-15, 1.224646799147353207E-16, -1.000000000000000000 ) ) ;
#221 = VERTEX_POINT ( 'NONE', #209 ) ;
#222 = DIRECTION ( 'NONE',  ( -3.491481338843133355E-15, 1.224646799147353207E-16, -1.000000000000000000 ) ) ;
#223 = ADVANCED_FACE ( 'NONE', ( #101 ), #51, .F. ) ;
#224 = VERTEX_POINT ( 'NONE', #186 ) ;
#225 = CC_DESIGN_PERSON_AND_ORGANIZATION_ASSIGNMENT ( #195, #59, ( #27 ) ) ;
#226 = VERTEX_POINT ( 'NONE', #24 ) ;
#227 = ORIENTED_EDGE ( 'NONE', *, *, #112, .F. ) ;
#228 = CARTESIAN_POINT ( 'NONE',  ( 6.284666409917639251E-15, -1.951563910473907735E-16, 1.799999999999999822 ) ) ;
#229 = ORIENTED_EDGE ( 'NONE', *, *, #112, .T. ) ;
#230 = CC_DESIGN_PERSON_AND_ORGANIZATION_ASSIGNMENT ( #49, #123, ( #156 ) ) ;
#231 = DIRECTION ( 'NONE',  ( 0.0000000000000000000, 1.000000000000000000, 0.0000000000000000000 ) ) ;
#232 = APPROVAL_DATE_TIME ( #117, #45 ) ;
#233 = CARTESIAN_POINT ( 'NONE',  ( 1.326762908760390675E-13, -8.377713426430119900E-31, 38.00000000000000711 ) ) ;
#234 = CC_DESIGN_APPROVAL ( #202, ( #156 ) ) ;
#235 = CARTESIAN_POINT ( 'NONE',  ( 0.0000000000000000000, 0.0000000000000000000, 0.0000000000000000000 ) ) ;
#236 = CC_DESIGN_APPROVAL ( #45, ( #27 ) ) ;
#237 = APPROVAL_ROLE ( '' ) ;
#238 = ADVANCED_FACE ( 'NONE', ( #212 ), #184, .T. ) ;
#239 = FACE_OUTER_BOUND ( 'NONE', #189, .T. ) ;
#240 = COORDINATED_UNIVERSAL_TIME_OFFSET ( 1, 0, .AHEAD. ) ;
#241 = APPLICATION_CONTEXT ( 'configuration controlled 3d designs of mechanical parts and assemblies' ) ;
#242 = SECURITY_CLASSIFICATION ( '', '', #19 ) ;
#243 = CYLINDRICAL_SURFACE ( 'NONE', #14, 0.3999999999999997446 ) ;
ENDSEC;
END-ISO-10303-21;
