ISO-10303-21;
HEADER;
FILE_DESCRIPTION (( 'STEP AP203' ),
    '1' );
FILE_NAME ('334947.step',
    '2021-11-15T08:05:56',
    ( '' ),
    ( '' ),
    'SwSTEP 2.0',
    'SolidWorks 2019',
    '' );
FILE_SCHEMA (( 'CONFIG_CONTROL_DESIGN' ));
ENDSEC;

DATA;
#1 = ADVANCED_FACE ( 'NONE', ( #67 ), #139, .F. ) ;
#2 = CC_DESIGN_SECURITY_CLASSIFICATION ( #212, ( #24 ) ) ;
#3 = EDGE_CURVE ( 'NONE', #79, #79, #204, .T. ) ;
#4 = AXIS2_PLACEMENT_3D ( 'NONE', #66, #114, #183 ) ;
#5 = FACE_BOUND ( 'NONE', #25, .T. ) ;
#6 = FACE_OUTER_BOUND ( 'NONE', #46, .T. ) ;
#7 = FACE_OUTER_BOUND ( 'NONE', #43, .T. ) ;
#8 = FACE_OUTER_BOUND ( 'NONE', #227, .T. ) ;
#9 = EDGE_LOOP ( 'NONE', ( #236 ) ) ;
#10 = PERSON ( 'UNSPECIFIED', 'UNSPECIFIED', 'UNSPECIFIED', ('UNSPECIFIED'), ('UNSPECIFIED'), ('UNSPECIFIED') ) ;
#11 = AXIS2_PLACEMENT_3D ( 'NONE', #82, #208, #167 ) ;
#12 = PERSON_AND_ORGANIZATION ( #10, #15 ) ;
#13 = APPROVAL_ROLE ( '' ) ;
#14 = AXIS2_PLACEMENT_3D ( 'NONE', #104, #23, #77 ) ;
#15 = ORGANIZATION ( 'UNSPECIFIED', 'UNSPECIFIED', '' ) ;
#16 = DATE_TIME_ROLE ( 'creation_date' ) ;
#17 = DIRECTION ( 'NONE',  ( 1.000000000000000000, 0.0000000000000000000, 0.0000000000000000000 ) ) ;
#18 = ADVANCED_FACE ( 'NONE', ( #63 ), #164, .F. ) ;
#19 = DIRECTION ( 'NONE',  ( 3.491481338843133355E-15, -0.0000000000000000000, 1.000000000000000000 ) ) ;
#20 = CC_DESIGN_PERSON_AND_ORGANIZATION_ASSIGNMENT ( #121, #220, ( #24 ) ) ;
#21 = DIRECTION ( 'NONE',  ( 3.491481338843133355E-15, -0.0000000000000000000, 1.000000000000000000 ) ) ;
#22 = ORIENTED_EDGE ( 'NONE', *, *, #84, .F. ) ;
#23 = DIRECTION ( 'NONE',  ( 3.491481338843133355E-15, -0.0000000000000000000, 1.000000000000000000 ) ) ;
#24 = PRODUCT_DEFINITION_FORMATION_WITH_SPECIFIED_SOURCE ( 'ANY', '', #45, .NOT_KNOWN. ) ;
#25 = EDGE_LOOP ( 'NONE', ( #184 ) ) ;
#26 = DIRECTION ( 'NONE',  ( 4.275831445896958607E-31, 1.000000000000000000, 1.224646799147353207E-16 ) ) ;
#27 = DIRECTION ( 'NONE',  ( 1.000000000000000000, 0.0000000000000000000, -3.717264591378872007E-15 ) ) ;
#28 = APPROVAL_STATUS ( 'not_yet_approved' ) ;
#29 = CALENDAR_DATE ( 2021, 15, 11 ) ;
#30 = CC_DESIGN_PERSON_AND_ORGANIZATION_ASSIGNMENT ( #144, #180, ( #45 ) ) ;
#31 = APPROVAL_ROLE ( '' ) ;
#32 = APPROVAL ( #28, 'UNSPECIFIED' ) ;
#33 = CIRCLE ( 'NONE', #154, 0.3500000000000000333 ) ;
#34 = DIRECTION ( 'NONE',  ( -4.275831445896958607E-31, -1.000000000000000000, -1.224646799147353207E-16 ) ) ;
#35 = ADVANCED_FACE ( 'NONE', ( #210, #229 ), #239, .F. ) ;
#36 = FACE_OUTER_BOUND ( 'NONE', #153, .T. ) ;
#37 = DIRECTION ( 'NONE',  ( 1.000000000000000000, 0.0000000000000000000, -3.717264591378872007E-15 ) ) ;
#38 = LOCAL_TIME ( 9, 5, 56.00000000000000000, #206 ) ;
#39 = CONICAL_SURFACE ( 'NONE', #11, 1.999999999999999556, 0.7853981633974485010 ) ;
#40 = ADVANCED_FACE ( 'NONE', ( #36, #5 ), #223, .T. ) ;
#41 = PLANE ( 'NONE',  #126 ) ;
#42 = LOCAL_TIME ( 9, 5, 56.00000000000000000, #179 ) ;
#43 = EDGE_LOOP ( 'NONE', ( #136 ) ) ;
#44 = DIRECTION ( 'NONE',  ( 1.000000000000000000, 0.0000000000000000000, -3.491481338843133355E-15 ) ) ;
#45 = PRODUCT ( '334947', '334947', '', ( #125 ) ) ;
#46 = EDGE_LOOP ( 'NONE', ( #101 ) ) ;
#47 = DIRECTION ( 'NONE',  ( 0.0000000000000000000, 0.0000000000000000000, 1.000000000000000000 ) ) ;
#48 = DIRECTION ( 'NONE',  ( -3.491481338843133355E-15, 1.224646799147353207E-16, -1.000000000000000000 ) ) ;
#49 = CARTESIAN_POINT ( 'NONE',  ( 1.326762908760390675E-13, 1.599999999999997202, 38.00000000000000711 ) ) ;
#50 = APPLICATION_CONTEXT ( 'configuration controlled 3d designs of mechanical parts and assemblies' ) ;
#51 = PERSON_AND_ORGANIZATION ( #10, #15 ) ;
#52 = PERSON_AND_ORGANIZATION ( #10, #15 ) ;
#53 = MANIFOLD_SOLID_BREP ( 'Corps-Déplacer/Copier1[2]', #230 ) ;
#54 = CIRCLE ( 'NONE', #181, 1.999999999999999556 ) ;
#55 = PERSON_AND_ORGANIZATION_ROLE ( 'classification_officer' ) ;
#56 = MANIFOLD_SOLID_BREP ( 'Corps-Déplacer/Copier1[1]', #156 ) ;
#57 = AXIS2_PLACEMENT_3D ( 'NONE', #60, #115, #169 ) ;
#58 = PLANE ( 'NONE',  #173 ) ;
#59 = ADVANCED_FACE ( 'NONE', ( #117, #138 ), #39, .T. ) ;
#60 = CARTESIAN_POINT ( 'NONE',  ( 1.326762908760390675E-13, -4.653657836759942730E-15, 38.00000000000000711 ) ) ;
#61 = DIRECTION ( 'NONE',  ( 3.491481338843133355E-15, -0.0000000000000000000, 1.000000000000000000 ) ) ;
#62 = ORIENTED_EDGE ( 'NONE', *, *, #240, .F. ) ;
#63 = FACE_OUTER_BOUND ( 'NONE', #98, .T. ) ;
#64 = ORIENTED_EDGE ( 'NONE', *, *, #106, .F. ) ;
#65 = PRODUCT_DEFINITION_SHAPE ( 'NONE', 'NONE',  #149 ) ;
#66 = CARTESIAN_POINT ( 'NONE',  ( 0.0000000000000000000, 0.0000000000000000000, 0.0000000000000000000 ) ) ;
#67 = FACE_OUTER_BOUND ( 'NONE', #209, .T. ) ;
#68 = CARTESIAN_POINT ( 'NONE',  ( 2.000000000000027978, 0.0000000000000000000, 8.021188827663589649 ) ) ;
#69 = CALENDAR_DATE ( 2021, 15, 11 ) ;
#70 = CARTESIAN_POINT ( 'NONE',  ( 1.326762908760390675E-13, -8.377713426430119900E-31, 38.00000000000000711 ) ) ;
#71 = CC_DESIGN_PERSON_AND_ORGANIZATION_ASSIGNMENT ( #78, #55, ( #212 ) ) ;
#72 = COORDINATED_UNIVERSAL_TIME_OFFSET ( 1, 0, .AHEAD. ) ;
#73 = CARTESIAN_POINT ( 'NONE',  ( 0.3500000000000056399, 0.0000000000000000000, 1.599999999999997868 ) ) ;
#74 = COORDINATED_UNIVERSAL_TIME_OFFSET ( 1, 0, .AHEAD. ) ;
#75 = CIRCLE ( 'NONE', #211, 1.999999999999999556 ) ;
#76 = CC_DESIGN_APPROVAL ( #32, ( #24 ) ) ;
#77 = DIRECTION ( 'NONE',  ( 1.000000000000000000, 0.0000000000000000000, -3.491481338843133750E-15 ) ) ;
#78 = PERSON_AND_ORGANIZATION ( #10, #15 ) ;
#79 = VERTEX_POINT ( 'NONE', #80 ) ;
#80 = CARTESIAN_POINT ( 'NONE',  ( 0.4181483474218674612, 0.0000000000000000000, 2.117638090205026913 ) ) ;
#81 = CARTESIAN_POINT ( 'NONE',  ( -4.275831445896957731E-31, 1.499759782661857608E-32, -1.224646799147353207E-16 ) ) ;
#82 = CARTESIAN_POINT ( 'NONE',  ( 1.312796983405018394E-13, -4.604671964794048513E-15, 37.60000000000000853 ) ) ;
#83 = EDGE_LOOP ( 'NONE', ( #214 ) ) ;
#84 = EDGE_CURVE ( 'NONE', #242, #242, #93, .T. ) ;
#85 = CARTESIAN_POINT ( 'NONE',  ( 1.312796983405018394E-13, 1.999999999999994893, 37.60000000000000853 ) ) ;
#86 = EDGE_LOOP ( 'NONE', ( #22 ) ) ;
#87 = CARTESIAN_POINT ( 'NONE',  ( 0.3500000000000000333, 0.0000000000000000000, -1.711877188254038056E-15 ) ) ;
#88 = PERSON_AND_ORGANIZATION_ROLE ( 'creator' ) ;
#89 = CC_DESIGN_APPROVAL ( #147, ( #149 ) ) ;
#90 = VERTEX_POINT ( 'NONE', #177 ) ;
#91 = APPLICATION_PROTOCOL_DEFINITION ( 'international standard', 'config_control_design', 1994, #50 ) ;
#92 = DATE_TIME_ROLE ( 'classification_date' ) ;
#93 = CIRCLE ( 'NONE', #14, 0.3500000000000000333 ) ;
#94 = CC_DESIGN_PERSON_AND_ORGANIZATION_ASSIGNMENT ( #51, #88, ( #149 ) ) ;
#95 = ADVANCED_BREP_SHAPE_REPRESENTATION ( '334947', ( #56, #53, #99 ), #143 ) ;
#96 = DIRECTION ( 'NONE',  ( 3.491481338843133355E-15, -0.0000000000000000000, 1.000000000000000000 ) ) ;
#97 = FACE_OUTER_BOUND ( 'NONE', #133, .T. ) ;
#98 = EDGE_LOOP ( 'NONE', ( #62 ) ) ;
#99 = AXIS2_PLACEMENT_3D ( 'NONE', #235, #47, #17 ) ;
#100 = CYLINDRICAL_SURFACE ( 'NONE', #166, 0.3500000000000000333 ) ;
#101 = ORIENTED_EDGE ( 'NONE', *, *, #163, .F. ) ;
#102 = DIRECTION ( 'NONE',  ( 0.0000000000000000000, 1.000000000000000000, 0.0000000000000000000 ) ) ;
#103 = EDGE_LOOP ( 'NONE', ( #175 ) ) ;
#104 = CARTESIAN_POINT ( 'NONE',  ( -1.710332578358783092E-30, 0.0000000000000000000, -4.898587196589412829E-16 ) ) ;
#105 = LOCAL_TIME ( 9, 5, 56.00000000000000000, #74 ) ;
#106 = EDGE_CURVE ( 'NONE', #124, #124, #75, .T. ) ;
#107 = DATE_AND_TIME ( #145, #157 ) ;
#108 = SECURITY_CLASSIFICATION_LEVEL ( 'unclassified' ) ;
#109 = APPROVAL_STATUS ( 'not_yet_approved' ) ;
#110 = CIRCLE ( 'NONE', #57, 1.600000000000001865 ) ;
#111 = CALENDAR_DATE ( 2021, 15, 11 ) ;
#112 = CALENDAR_DATE ( 2021, 15, 11 ) ;
#113 = CARTESIAN_POINT ( 'NONE',  ( 0.0000000000000000000, 0.0000000000000000000, 0.0000000000000000000 ) ) ;
#114 = DIRECTION ( 'NONE',  ( -3.491481338843133355E-15, 1.224646799147353207E-16, -1.000000000000000000 ) ) ;
#115 = DIRECTION ( 'NONE',  ( -3.491481338843133355E-15, 1.224646799147353207E-16, -1.000000000000000000 ) ) ;
#116 = CC_DESIGN_APPROVAL ( #168, ( #212 ) ) ;
#117 = FACE_BOUND ( 'NONE', #231, .T. ) ;
#118 = CARTESIAN_POINT ( 'NONE',  ( 5.586370142149011002E-15, 0.0000000000000000000, 1.599999999999999201 ) ) ;
#119 = ORIENTED_EDGE ( 'NONE', *, *, #176, .T. ) ;
#120 = ADVANCED_FACE ( 'NONE', ( #132 ), #41, .T. ) ;
#121 = PERSON_AND_ORGANIZATION ( #10, #15 ) ;
#122 = DIRECTION ( 'NONE',  ( 3.491481338843133355E-15, -0.0000000000000000000, 1.000000000000000000 ) ) ;
#123 = CC_DESIGN_DATE_AND_TIME_ASSIGNMENT ( #128, #92, ( #212 ) ) ;
#124 = VERTEX_POINT ( 'NONE', #68 ) ;
#125 = MECHANICAL_CONTEXT ( 'NONE', #50, 'mechanical' ) ;
#126 = AXIS2_PLACEMENT_3D ( 'NONE', #81, #151, #26 ) ;
#127 = APPROVAL_STATUS ( 'not_yet_approved' ) ;
#128 = DATE_AND_TIME ( #112, #105 ) ;
#129 = LOCAL_TIME ( 9, 5, 56.00000000000000000, #193 ) ;
#130 = DESIGN_CONTEXT ( 'detailed design', #160, 'design' ) ;
#131 = DIRECTION ( 'NONE',  ( 1.000000000000000000, 0.0000000000000000000, -3.111437878457077522E-15 ) ) ;
#132 = FACE_OUTER_BOUND ( 'NONE', #86, .T. ) ;
#133 = EDGE_LOOP ( 'NONE', ( #216 ) ) ;
#134 = CC_DESIGN_PERSON_AND_ORGANIZATION_ASSIGNMENT ( #12, #217, ( #24 ) ) ;
#135 = DIRECTION ( 'NONE',  ( 3.491481338843133355E-15, -0.0000000000000000000, 1.000000000000000000 ) ) ;
#136 = ORIENTED_EDGE ( 'NONE', *, *, #106, .T. ) ;
#137 = DIRECTION ( 'NONE',  ( 1.000000000000000000, 0.0000000000000000000, -3.469446951953614189E-15 ) ) ;
#138 = FACE_OUTER_BOUND ( 'NONE', #103, .T. ) ;
#139 = PLANE ( 'NONE',  #197 ) ;
#140 = DATE_AND_TIME ( #69, #129 ) ;
#141 = APPROVAL_ROLE ( '' ) ;
#142 = AXIS2_PLACEMENT_3D ( 'NONE', #226, #171, #228 ) ;
#143 =( GEOMETRIC_REPRESENTATION_CONTEXT ( 3 ) GLOBAL_UNCERTAINTY_ASSIGNED_CONTEXT ( ( #162 ) ) GLOBAL_UNIT_ASSIGNED_CONTEXT ( ( #238, #158, #215 ) ) REPRESENTATION_CONTEXT ( 'NONE', 'WORKASPACE' ) );
#144 = PERSON_AND_ORGANIZATION ( #10, #15 ) ;
#145 = CALENDAR_DATE ( 2021, 15, 11 ) ;
#146 = VERTEX_POINT ( 'NONE', #73 ) ;
#147 = APPROVAL ( #109, 'UNSPECIFIED' ) ;
#148 = CARTESIAN_POINT ( 'NONE',  ( 5.586370142149012580E-15, -1.734723475976806601E-16, 1.599999999999999645 ) ) ;
#149 = PRODUCT_DEFINITION ( 'UNKNOWN', '', #24, #130 ) ;
#150 = DIRECTION ( 'NONE',  ( 1.000000000000000000, 0.0000000000000000000, -3.469446951953614978E-15 ) ) ;
#151 = DIRECTION ( 'NONE',  ( -3.491481338843133355E-15, 1.224646799147353207E-16, -1.000000000000000000 ) ) ;
#152 = CARTESIAN_POINT ( 'NONE',  ( 5.586370142149011791E-15, 0.0000000000000000000, 1.599999999999999423 ) ) ;
#153 = EDGE_LOOP ( 'NONE', ( #64 ) ) ;
#154 = AXIS2_PLACEMENT_3D ( 'NONE', #155, #61, #37 ) ;
#155 = CARTESIAN_POINT ( 'NONE',  ( 5.586370142149011002E-15, 0.0000000000000000000, 1.599999999999999201 ) ) ;
#156 = CLOSED_SHELL ( 'NONE', ( #233, #59, #1, #35, #40, #18 ) ) ;
#157 = LOCAL_TIME ( 9, 5, 56.00000000000000000, #72 ) ;
#158 =( NAMED_UNIT ( * ) PLANE_ANGLE_UNIT ( ) SI_UNIT ( $, .RADIAN. ) );
#159 = DATE_AND_TIME ( #111, #38 ) ;
#160 = APPLICATION_CONTEXT ( 'configuration controlled 3d designs of mechanical parts and assemblies' ) ;
#161 = CC_DESIGN_DATE_AND_TIME_ASSIGNMENT ( #221, #16, ( #149 ) ) ;
#162 = UNCERTAINTY_MEASURE_WITH_UNIT (LENGTH_MEASURE( 1.000000000000000082E-05 ), #238, 'distance_accuracy_value', 'NONE');
#163 = EDGE_CURVE ( 'NONE', #90, #90, #33, .T. ) ;
#164 = PLANE ( 'NONE',  #142 ) ;
#165 = CARTESIAN_POINT ( 'NONE',  ( 2.800583110712447257E-14, 0.0000000000000000000, 8.021188827663596754 ) ) ;
#166 = AXIS2_PLACEMENT_3D ( 'NONE', #113, #96, #213 ) ;
#167 = DIRECTION ( 'NONE',  ( 0.0000000000000000000, 1.000000000000000000, 0.0000000000000000000 ) ) ;
#168 = APPROVAL ( #127, 'UNSPECIFIED' ) ;
#169 = DIRECTION ( 'NONE',  ( 0.0000000000000000000, 1.000000000000000000, 0.0000000000000000000 ) ) ;
#170 = ORIENTED_EDGE ( 'NONE', *, *, #201, .T. ) ;
#171 = DIRECTION ( 'NONE',  ( 3.491481338843133355E-15, -1.224646799147353207E-16, 1.000000000000000000 ) ) ;
#172 = EDGE_LOOP ( 'NONE', ( #186 ) ) ;
#173 = AXIS2_PLACEMENT_3D ( 'NONE', #148, #203, #34 ) ;
#174 = APPROVAL_DATE_TIME ( #107, #32 ) ;
#175 = ORIENTED_EDGE ( 'NONE', *, *, #176, .F. ) ;
#176 = EDGE_CURVE ( 'NONE', #198, #198, #54, .T. ) ;
#177 = CARTESIAN_POINT ( 'NONE',  ( 0.3500000000000056399, 0.0000000000000000000, 1.599999999999997868 ) ) ;
#178 = APPROVAL_PERSON_ORGANIZATION ( #52, #32, #141 ) ;
#179 = COORDINATED_UNIVERSAL_TIME_OFFSET ( 1, 0, .AHEAD. ) ;
#180 = PERSON_AND_ORGANIZATION_ROLE ( 'design_owner' ) ;
#181 = AXIS2_PLACEMENT_3D ( 'NONE', #225, #191, #102 ) ;
#182 = FACE_OUTER_BOUND ( 'NONE', #172, .T. ) ;
#183 = DIRECTION ( 'NONE',  ( 4.275831445896958607E-31, 1.000000000000000000, 1.224646799147353207E-16 ) ) ;
#184 = ORIENTED_EDGE ( 'NONE', *, *, #3, .T. ) ;
#185 = DIRECTION ( 'NONE',  ( 3.491481338843133355E-15, -0.0000000000000000000, 1.000000000000000000 ) ) ;
#186 = ORIENTED_EDGE ( 'NONE', *, *, #163, .T. ) ;
#187 = AXIS2_PLACEMENT_3D ( 'NONE', #152, #185, #44 ) ;
#188 = AXIS2_PLACEMENT_3D ( 'NONE', #118, #21, #27 ) ;
#189 = CARTESIAN_POINT ( 'NONE',  ( 5.406660260760753132E-14, 0.0000000000000000000, 15.48529044280155098 ) ) ;
#190 = ORIENTED_EDGE ( 'NONE', *, *, #201, .F. ) ;
#191 = DIRECTION ( 'NONE',  ( -3.491481338843133355E-15, 1.224646799147353207E-16, -1.000000000000000000 ) ) ;
#192 = ADVANCED_FACE ( 'NONE', ( #182 ), #58, .T. ) ;
#193 = COORDINATED_UNIVERSAL_TIME_OFFSET ( 1, 0, .AHEAD. ) ;
#194 = DIRECTION ( 'NONE',  ( 4.275831445896958607E-31, 1.000000000000000000, 1.224646799147353207E-16 ) ) ;
#195 = VERTEX_POINT ( 'NONE', #49 ) ;
#196 = PRODUCT_RELATED_PRODUCT_CATEGORY ( 'detail', '', ( #45 ) ) ;
#197 = AXIS2_PLACEMENT_3D ( 'NONE', #70, #48, #194 ) ;
#198 = VERTEX_POINT ( 'NONE', #85 ) ;
#199 = PERSON_AND_ORGANIZATION ( #10, #15 ) ;
#200 = AXIS2_PLACEMENT_3D ( 'NONE', #218, #122, #131 ) ;
#201 = EDGE_CURVE ( 'NONE', #195, #195, #110, .T. ) ;
#202 = SHAPE_DEFINITION_REPRESENTATION ( #65, #95 ) ;
#203 = DIRECTION ( 'NONE',  ( 3.491481338843133355E-15, -1.224646799147353207E-16, 1.000000000000000000 ) ) ;
#204 = CIRCLE ( 'NONE', #200, 0.4181483474218600782 ) ;
#205 = CYLINDRICAL_SURFACE ( 'NONE', #4, 1.999999999999999556 ) ;
#206 = COORDINATED_UNIVERSAL_TIME_OFFSET ( 1, 0, .AHEAD. ) ;
#207 = ADVANCED_FACE ( 'NONE', ( #97, #6 ), #100, .T. ) ;
#208 = DIRECTION ( 'NONE',  ( -3.491481338843133355E-15, 1.224646799147353207E-16, -1.000000000000000000 ) ) ;
#209 = EDGE_LOOP ( 'NONE', ( #190 ) ) ;
#210 = FACE_OUTER_BOUND ( 'NONE', #83, .T. ) ;
#211 = AXIS2_PLACEMENT_3D ( 'NONE', #165, #19, #150 ) ;
#212 = SECURITY_CLASSIFICATION ( '', '', #108 ) ;
#213 = DIRECTION ( 'NONE',  ( 1.000000000000000000, 0.0000000000000000000, -3.491481338843133750E-15 ) ) ;
#214 = ORIENTED_EDGE ( 'NONE', *, *, #240, .T. ) ;
#215 =( NAMED_UNIT ( * ) SI_UNIT ( $, .STERADIAN. ) SOLID_ANGLE_UNIT ( ) );
#216 = ORIENTED_EDGE ( 'NONE', *, *, #84, .T. ) ;
#217 = PERSON_AND_ORGANIZATION_ROLE ( 'creator' ) ;
#218 = CARTESIAN_POINT ( 'NONE',  ( 7.393693874374268172E-15, 0.0000000000000000000, 2.117638090205028245 ) ) ;
#219 = APPLICATION_PROTOCOL_DEFINITION ( 'international standard', 'config_control_design', 1994, #160 ) ;
#220 = PERSON_AND_ORGANIZATION_ROLE ( 'design_supplier' ) ;
#221 = DATE_AND_TIME ( #29, #42 ) ;
#222 = APPROVAL_DATE_TIME ( #159, #168 ) ;
#223 = CONICAL_SURFACE ( 'NONE', #232, 4.000000000000000000, 0.2617993877991427465 ) ;
#224 = CIRCLE ( 'NONE', #188, 0.3500000000000000333 ) ;
#225 = CARTESIAN_POINT ( 'NONE',  ( 1.312796983405018394E-13, -4.604671964794048513E-15, 37.60000000000000853 ) ) ;
#226 = CARTESIAN_POINT ( 'NONE',  ( 5.586370142149012580E-15, -1.734723475976806601E-16, 1.599999999999999645 ) ) ;
#227 = EDGE_LOOP ( 'NONE', ( #119 ) ) ;
#228 = DIRECTION ( 'NONE',  ( -4.275831445896958607E-31, -1.000000000000000000, -1.224646799147353207E-16 ) ) ;
#229 = FACE_OUTER_BOUND ( 'NONE', #9, .T. ) ;
#230 = CLOSED_SHELL ( 'NONE', ( #192, #207, #120 ) ) ;
#231 = EDGE_LOOP ( 'NONE', ( #170 ) ) ;
#232 = AXIS2_PLACEMENT_3D ( 'NONE', #189, #135, #137 ) ;
#233 = ADVANCED_FACE ( 'NONE', ( #8, #7 ), #205, .T. ) ;
#234 = PERSON_AND_ORGANIZATION ( #10, #15 ) ;
#235 = CARTESIAN_POINT ( 'NONE',  ( 0.0000000000000000000, 0.0000000000000000000, 0.0000000000000000000 ) ) ;
#236 = ORIENTED_EDGE ( 'NONE', *, *, #3, .F. ) ;
#237 = APPROVAL_PERSON_ORGANIZATION ( #199, #168, #31 ) ;
#238 =( LENGTH_UNIT ( ) NAMED_UNIT ( * ) SI_UNIT ( .MILLI., .METRE. ) );
#239 = TOROIDAL_SURFACE ( 'NONE', #187, 2.350000000000000089, 2.000000000000000000 ) ;
#240 = EDGE_CURVE ( 'NONE', #146, #146, #224, .T. ) ;
#241 = APPROVAL_PERSON_ORGANIZATION ( #234, #147, #13 ) ;
#242 = VERTEX_POINT ( 'NONE', #87 ) ;
#243 = APPROVAL_DATE_TIME ( #140, #147 ) ;
ENDSEC;
END-ISO-10303-21;
