ISO-10303-21;
HEADER;
FILE_DESCRIPTION (( 'STEP AP203' ),
    '1' );
FILE_NAME ('334946.step',
    '2021-11-15T08:05:56',
    ( '' ),
    ( '' ),
    'SwSTEP 2.0',
    'SolidWorks 2019',
    '' );
FILE_SCHEMA (( 'CONFIG_CONTROL_DESIGN' ));
ENDSEC;

DATA;
#1 = APPROVAL_DATE_TIME ( #94, #172 ) ;
#2 = DIRECTION ( 'NONE',  ( 1.000000000000000000, 0.0000000000000000000, -3.614007241618349165E-15 ) ) ;
#3 = APPROVAL_PERSON_ORGANIZATION ( #166, #172, #242 ) ;
#4 = ORIENTED_EDGE ( 'NONE', *, *, #40, .F. ) ;
#5 = CC_DESIGN_APPROVAL ( #23, ( #87 ) ) ;
#6 = PLANE ( 'NONE',  #22 ) ;
#7 = DIRECTION ( 'NONE',  ( -4.275831445896958607E-31, -1.000000000000000000, -1.224646799147353207E-16 ) ) ;
#8 = SECURITY_CLASSIFICATION_LEVEL ( 'unclassified' ) ;
#9 = PLANE ( 'NONE',  #186 ) ;
#10 = EDGE_CURVE ( 'NONE', #99, #99, #221, .T. ) ;
#11 = DATE_AND_TIME ( #176, #15 ) ;
#12 = CARTESIAN_POINT ( 'NONE',  ( 0.0000000000000000000, 0.0000000000000000000, 0.0000000000000000000 ) ) ;
#13 = PERSON_AND_ORGANIZATION ( #55, #200 ) ;
#14 = CARTESIAN_POINT ( 'NONE',  ( 1.312796983405018394E-13, -4.604671964794048513E-15, 37.60000000000000853 ) ) ;
#15 = LOCAL_TIME ( 9, 5, 56.00000000000000000, #28 ) ;
#16 = DATE_AND_TIME ( #106, #93 ) ;
#17 = VERTEX_POINT ( 'NONE', #235 ) ;
#18 = AXIS2_PLACEMENT_3D ( 'NONE', #29, #62, #43 ) ;
#19 = EDGE_CURVE ( 'NONE', #65, #65, #100, .T. ) ;
#20 = DIRECTION ( 'NONE',  ( -3.491481338843133355E-15, 1.224646799147353207E-16, -1.000000000000000000 ) ) ;
#21 = DATE_TIME_ROLE ( 'classification_date' ) ;
#22 = AXIS2_PLACEMENT_3D ( 'NONE', #86, #231, #7 ) ;
#23 = APPROVAL ( #143, 'UNSPECIFIED' ) ;
#24 = CARTESIAN_POINT ( 'NONE',  ( 4.888073874380384331E-15, 0.0000000000000000000, 1.399999999999999245 ) ) ;
#25 = DIRECTION ( 'NONE',  ( 4.275831445896958607E-31, 1.000000000000000000, 1.224646799147353207E-16 ) ) ;
#26 = FACE_OUTER_BOUND ( 'NONE', #147, .T. ) ;
#27 = EDGE_CURVE ( 'NONE', #17, #17, #141, .T. ) ;
#28 = COORDINATED_UNIVERSAL_TIME_OFFSET ( 1, 0, .AHEAD. ) ;
#29 = CARTESIAN_POINT ( 'NONE',  ( 5.401982562735098104E-14, 0.0000000000000000000, 15.47189298317999828 ) ) ;
#30 = PERSON_AND_ORGANIZATION ( #55, #200 ) ;
#31 = FACE_OUTER_BOUND ( 'NONE', #76, .T. ) ;
#32 = APPROVAL_DATE_TIME ( #49, #23 ) ;
#33 = DESIGN_CONTEXT ( 'detailed design', #169, 'design' ) ;
#34 = PERSON_AND_ORGANIZATION_ROLE ( 'creator' ) ;
#35 = ORIENTED_EDGE ( 'NONE', *, *, #104, .F. ) ;
#36 = CC_DESIGN_PERSON_AND_ORGANIZATION_ASSIGNMENT ( #180, #34, ( #87 ) ) ;
#37 = EDGE_LOOP ( 'NONE', ( #220 ) ) ;
#38 = AXIS2_PLACEMENT_3D ( 'NONE', #177, #139, #193 ) ;
#39 = CC_DESIGN_APPROVAL ( #172, ( #205 ) ) ;
#40 = EDGE_CURVE ( 'NONE', #122, #122, #165, .T. ) ;
#41 = PRODUCT_RELATED_PRODUCT_CATEGORY ( 'detail', '', ( #123 ) ) ;
#42 = FACE_OUTER_BOUND ( 'NONE', #202, .T. ) ;
#43 = DIRECTION ( 'NONE',  ( 1.000000000000000000, 0.0000000000000000000, -3.469446951953614189E-15 ) ) ;
#44 =( NAMED_UNIT ( * ) SI_UNIT ( $, .STERADIAN. ) SOLID_ANGLE_UNIT ( ) );
#45 = DIRECTION ( 'NONE',  ( 3.491481338843133355E-15, -0.0000000000000000000, 1.000000000000000000 ) ) ;
#46 = DIRECTION ( 'NONE',  ( 1.000000000000000000, 0.0000000000000000000, 0.0000000000000000000 ) ) ;
#47 = CARTESIAN_POINT ( 'NONE',  ( 1.326762908760390675E-13, -8.377713426430119900E-31, 38.00000000000000711 ) ) ;
#48 =( LENGTH_UNIT ( ) NAMED_UNIT ( * ) SI_UNIT ( .MILLI., .METRE. ) );
#49 = DATE_AND_TIME ( #66, #189 ) ;
#50 = EDGE_LOOP ( 'NONE', ( #35 ) ) ;
#51 = APPLICATION_PROTOCOL_DEFINITION ( 'international standard', 'config_control_design', 1994, #169 ) ;
#52 = EDGE_LOOP ( 'NONE', ( #181 ) ) ;
#53 = MANIFOLD_SOLID_BREP ( 'Corps-Déplacer/Copier1[2]', #208 ) ;
#54 = FACE_OUTER_BOUND ( 'NONE', #89, .T. ) ;
#55 = PERSON ( 'UNSPECIFIED', 'UNSPECIFIED', 'UNSPECIFIED', ('UNSPECIFIED'), ('UNSPECIFIED'), ('UNSPECIFIED') ) ;
#56 = AXIS2_PLACEMENT_3D ( 'NONE', #210, #120, #25 ) ;
#57 = CARTESIAN_POINT ( 'NONE',  ( 4.888073874380383542E-15, 0.0000000000000000000, 1.399999999999999023 ) ) ;
#58 = CIRCLE ( 'NONE', #38, 1.600000000000001865 ) ;
#59 = ORIENTED_EDGE ( 'NONE', *, *, #10, .T. ) ;
#60 = DIRECTION ( 'NONE',  ( -3.491481338843133355E-15, 1.224646799147353207E-16, -1.000000000000000000 ) ) ;
#61 = CONICAL_SURFACE ( 'NONE', #160, 1.999999999999999556, 0.7853981633974485010 ) ;
#62 = DIRECTION ( 'NONE',  ( 3.491481338843133355E-15, -0.0000000000000000000, 1.000000000000000000 ) ) ;
#63 = ADVANCED_FACE ( 'NONE', ( #54 ), #206, .T. ) ;
#64 = APPROVAL_ROLE ( '' ) ;
#65 = VERTEX_POINT ( 'NONE', #195 ) ;
#66 = CALENDAR_DATE ( 2021, 15, 11 ) ;
#67 = FACE_OUTER_BOUND ( 'NONE', #50, .T. ) ;
#68 = UNCERTAINTY_MEASURE_WITH_UNIT (LENGTH_MEASURE( 1.000000000000000082E-05 ), #48, 'distance_accuracy_value', 'NONE');
#69 = CARTESIAN_POINT ( 'NONE',  ( -4.275831445896957731E-31, 1.499759782661857608E-32, -1.224646799147353207E-16 ) ) ;
#70 = CARTESIAN_POINT ( 'NONE',  ( 1.312796983405018394E-13, 1.999999999999994893, 37.60000000000000853 ) ) ;
#71 = EDGE_LOOP ( 'NONE', ( #183 ) ) ;
#72 =( GEOMETRIC_REPRESENTATION_CONTEXT ( 3 ) GLOBAL_UNCERTAINTY_ASSIGNED_CONTEXT ( ( #68 ) ) GLOBAL_UNIT_ASSIGNED_CONTEXT ( ( #48, #240, #44 ) ) REPRESENTATION_CONTEXT ( 'NONE', 'WORKASPACE' ) );
#73 = CALENDAR_DATE ( 2021, 15, 11 ) ;
#74 = EDGE_CURVE ( 'NONE', #119, #119, #58, .T. ) ;
#75 = SHAPE_DEFINITION_REPRESENTATION ( #184, #153 ) ;
#76 = EDGE_LOOP ( 'NONE', ( #128 ) ) ;
#77 = AXIS2_PLACEMENT_3D ( 'NONE', #69, #20, #114 ) ;
#78 = DIRECTION ( 'NONE',  ( 0.0000000000000000000, 1.000000000000000000, 0.0000000000000000000 ) ) ;
#79 = CC_DESIGN_DATE_AND_TIME_ASSIGNMENT ( #16, #88, ( #87 ) ) ;
#80 = PLANE ( 'NONE',  #171 ) ;
#81 = VERTEX_POINT ( 'NONE', #159 ) ;
#82 = FACE_OUTER_BOUND ( 'NONE', #145, .T. ) ;
#83 = PERSON_AND_ORGANIZATION_ROLE ( 'design_supplier' ) ;
#84 = FACE_OUTER_BOUND ( 'NONE', #71, .T. ) ;
#85 = COORDINATED_UNIVERSAL_TIME_OFFSET ( 1, 0, .AHEAD. ) ;
#86 = CARTESIAN_POINT ( 'NONE',  ( 4.888073874380385120E-15, -1.517883041479705715E-16, 1.399999999999999467 ) ) ;
#87 = PRODUCT_DEFINITION ( 'UNKNOWN', '', #209, #33 ) ;
#88 = DATE_TIME_ROLE ( 'creation_date' ) ;
#89 = EDGE_LOOP ( 'NONE', ( #164 ) ) ;
#90 = CARTESIAN_POINT ( 'NONE',  ( 1.326762908760390675E-13, 1.599999999999997202, 38.00000000000000711 ) ) ;
#91 = ORIENTED_EDGE ( 'NONE', *, *, #19, .T. ) ;
#92 = COORDINATED_UNIVERSAL_TIME_OFFSET ( 1, 0, .AHEAD. ) ;
#93 = LOCAL_TIME ( 9, 5, 56.00000000000000000, #85 ) ;
#94 = DATE_AND_TIME ( #73, #237 ) ;
#95 = ADVANCED_FACE ( 'NONE', ( #31, #67 ), #236, .T. ) ;
#96 = APPROVAL_PERSON_ORGANIZATION ( #194, #187, #124 ) ;
#97 = CIRCLE ( 'NONE', #107, 0.2999999999999999334 ) ;
#98 = DIRECTION ( 'NONE',  ( 1.000000000000000000, 0.0000000000000000000, -3.491481338843133355E-15 ) ) ;
#99 = VERTEX_POINT ( 'NONE', #234 ) ;
#100 = CIRCLE ( 'NONE', #203, 0.2999999999999999334 ) ;
#101 = PERSON_AND_ORGANIZATION ( #55, #200 ) ;
#102 = DIRECTION ( 'NONE',  ( 3.491481338843133355E-15, -1.224646799147353207E-16, 1.000000000000000000 ) ) ;
#103 = DIRECTION ( 'NONE',  ( 1.000000000000000000, 0.0000000000000000000, -3.614007241618349165E-15 ) ) ;
#104 = EDGE_CURVE ( 'NONE', #196, #196, #97, .T. ) ;
#105 = DIRECTION ( 'NONE',  ( -3.491481338843133355E-15, 1.224646799147353207E-16, -1.000000000000000000 ) ) ;
#106 = CALENDAR_DATE ( 2021, 15, 11 ) ;
#107 = AXIS2_PLACEMENT_3D ( 'NONE', #118, #116, #103 ) ;
#108 = APPROVAL_STATUS ( 'not_yet_approved' ) ;
#109 = EDGE_LOOP ( 'NONE', ( #239 ) ) ;
#110 = ORIENTED_EDGE ( 'NONE', *, *, #27, .F. ) ;
#111 = APPROVAL_PERSON_ORGANIZATION ( #30, #23, #64 ) ;
#112 = AXIS2_PLACEMENT_3D ( 'NONE', #24, #45, #98 ) ;
#113 = AXIS2_PLACEMENT_3D ( 'NONE', #12, #198, #156 ) ;
#114 = DIRECTION ( 'NONE',  ( 4.275831445896958607E-31, 1.000000000000000000, 1.224646799147353207E-16 ) ) ;
#115 = AXIS2_PLACEMENT_3D ( 'NONE', #199, #178, #46 ) ;
#116 = DIRECTION ( 'NONE',  ( 3.491481338843133355E-15, -0.0000000000000000000, 1.000000000000000000 ) ) ;
#117 = APPLICATION_CONTEXT ( 'configuration controlled 3d designs of mechanical parts and assemblies' ) ;
#118 = CARTESIAN_POINT ( 'NONE',  ( 4.888073874380383542E-15, 0.0000000000000000000, 1.399999999999999023 ) ) ;
#119 = VERTEX_POINT ( 'NONE', #90 ) ;
#120 = DIRECTION ( 'NONE',  ( -3.491481338843133355E-15, 1.224646799147353207E-16, -1.000000000000000000 ) ) ;
#121 = CC_DESIGN_PERSON_AND_ORGANIZATION_ASSIGNMENT ( #13, #215, ( #123 ) ) ;
#122 = VERTEX_POINT ( 'NONE', #70 ) ;
#123 = PRODUCT ( '334946', '334946', '', ( #146 ) ) ;
#124 = APPROVAL_ROLE ( '' ) ;
#125 = EDGE_CURVE ( 'NONE', #81, #81, #222, .T. ) ;
#126 = EDGE_LOOP ( 'NONE', ( #218 ) ) ;
#127 = CARTESIAN_POINT ( 'NONE',  ( 6.695397606605640712E-15, 0.0000000000000000000, 1.917638090205028067 ) ) ;
#128 = ORIENTED_EDGE ( 'NONE', *, *, #125, .T. ) ;
#129 = CARTESIAN_POINT ( 'NONE',  ( 1.312796983405018394E-13, -4.604671964794048513E-15, 37.60000000000000853 ) ) ;
#130 = CC_DESIGN_SECURITY_CLASSIFICATION ( #205, ( #209 ) ) ;
#131 = ADVANCED_FACE ( 'NONE', ( #84 ), #9, .F. ) ;
#132 = DIRECTION ( 'NONE',  ( 3.491481338843133355E-15, -0.0000000000000000000, 1.000000000000000000 ) ) ;
#133 = CC_DESIGN_PERSON_AND_ORGANIZATION_ASSIGNMENT ( #101, #83, ( #209 ) ) ;
#134 = AXIS2_PLACEMENT_3D ( 'NONE', #127, #182, #224 ) ;
#135 = DIRECTION ( 'NONE',  ( 0.0000000000000000000, 1.000000000000000000, 0.0000000000000000000 ) ) ;
#136 = FACE_OUTER_BOUND ( 'NONE', #37, .T. ) ;
#137 = FACE_OUTER_BOUND ( 'NONE', #109, .T. ) ;
#138 = PERSON_AND_ORGANIZATION ( #55, #200 ) ;
#139 = DIRECTION ( 'NONE',  ( -3.491481338843133355E-15, 1.224646799147353207E-16, -1.000000000000000000 ) ) ;
#140 = ADVANCED_FACE ( 'NONE', ( #233 ), #6, .T. ) ;
#141 = CIRCLE ( 'NONE', #134, 0.3681483474218599228 ) ;
#142 = LOCAL_TIME ( 9, 5, 56.00000000000000000, #92 ) ;
#143 = APPROVAL_STATUS ( 'not_yet_approved' ) ;
#144 = APPLICATION_PROTOCOL_DEFINITION ( 'international standard', 'config_control_design', 1994, #117 ) ;
#145 = EDGE_LOOP ( 'NONE', ( #59 ) ) ;
#146 = MECHANICAL_CONTEXT ( 'NONE', #117, 'mechanical' ) ;
#147 = EDGE_LOOP ( 'NONE', ( #110 ) ) ;
#148 = EDGE_LOOP ( 'NONE', ( #4 ) ) ;
#149 = CC_DESIGN_DATE_AND_TIME_ASSIGNMENT ( #225, #21, ( #205 ) ) ;
#150 = CARTESIAN_POINT ( 'NONE',  ( 2.795905412686792544E-14, 0.0000000000000000000, 8.007791368042045832 ) ) ;
#151 = APPROVAL_STATUS ( 'not_yet_approved' ) ;
#152 = AXIS2_PLACEMENT_3D ( 'NONE', #216, #174, #173 ) ;
#153 = ADVANCED_BREP_SHAPE_REPRESENTATION ( '334946', ( #212, #53, #115 ), #72 ) ;
#154 = ADVANCED_FACE ( 'NONE', ( #213, #191 ), #61, .T. ) ;
#155 = CARTESIAN_POINT ( 'NONE',  ( 4.888073874380385120E-15, -1.517883041479705715E-16, 1.399999999999999467 ) ) ;
#156 = DIRECTION ( 'NONE',  ( 1.000000000000000000, 0.0000000000000000000, -3.491481338843132961E-15 ) ) ;
#157 = CYLINDRICAL_SURFACE ( 'NONE', #56, 2.000000000000000000 ) ;
#158 = PERSON_AND_ORGANIZATION_ROLE ( 'classification_officer' ) ;
#159 = CARTESIAN_POINT ( 'NONE',  ( 0.2999999999999999334, 0.0000000000000000000, -1.537303121311880796E-15 ) ) ;
#160 = AXIS2_PLACEMENT_3D ( 'NONE', #14, #60, #135 ) ;
#161 = APPROVAL_DATE_TIME ( #11, #187 ) ;
#162 = EDGE_LOOP ( 'NONE', ( #204 ) ) ;
#163 = CC_DESIGN_PERSON_AND_ORGANIZATION_ASSIGNMENT ( #138, #158, ( #205 ) ) ;
#164 = ORIENTED_EDGE ( 'NONE', *, *, #125, .F. ) ;
#165 = CIRCLE ( 'NONE', #188, 1.999999999999999556 ) ;
#166 = PERSON_AND_ORGANIZATION ( #55, #200 ) ;
#167 = ADVANCED_FACE ( 'NONE', ( #42, #26 ), #214, .F. ) ;
#168 = DIRECTION ( 'NONE',  ( 3.491481338843133355E-15, -0.0000000000000000000, 1.000000000000000000 ) ) ;
#169 = APPLICATION_CONTEXT ( 'configuration controlled 3d designs of mechanical parts and assemblies' ) ;
#170 = AXIS2_PLACEMENT_3D ( 'NONE', #150, #168, #226 ) ;
#171 = AXIS2_PLACEMENT_3D ( 'NONE', #155, #102, #190 ) ;
#172 = APPROVAL ( #151, 'UNSPECIFIED' ) ;
#173 = DIRECTION ( 'NONE',  ( 1.000000000000000000, 0.0000000000000000000, -3.491481338843132172E-15 ) ) ;
#174 = DIRECTION ( 'NONE',  ( 3.491481338843133355E-15, -0.0000000000000000000, 1.000000000000000000 ) ) ;
#175 = CARTESIAN_POINT ( 'NONE',  ( 0.3000000000000048184, 0.0000000000000000000, 1.399999999999998135 ) ) ;
#176 = CALENDAR_DATE ( 2021, 15, 11 ) ;
#177 = CARTESIAN_POINT ( 'NONE',  ( 1.326762908760390675E-13, -4.653657836759942730E-15, 38.00000000000000711 ) ) ;
#178 = DIRECTION ( 'NONE',  ( 0.0000000000000000000, 0.0000000000000000000, 1.000000000000000000 ) ) ;
#179 = DIRECTION ( 'NONE',  ( 4.275831445896958607E-31, 1.000000000000000000, 1.224646799147353207E-16 ) ) ;
#180 = PERSON_AND_ORGANIZATION ( #55, #200 ) ;
#181 = ORIENTED_EDGE ( 'NONE', *, *, #10, .F. ) ;
#182 = DIRECTION ( 'NONE',  ( 3.491481338843133355E-15, -0.0000000000000000000, 1.000000000000000000 ) ) ;
#183 = ORIENTED_EDGE ( 'NONE', *, *, #74, .F. ) ;
#184 = PRODUCT_DEFINITION_SHAPE ( 'NONE', 'NONE',  #87 ) ;
#185 = CLOSED_SHELL ( 'NONE', ( #230, #154, #131, #167, #217, #192 ) ) ;
#186 = AXIS2_PLACEMENT_3D ( 'NONE', #47, #105, #179 ) ;
#187 = APPROVAL ( #108, 'UNSPECIFIED' ) ;
#188 = AXIS2_PLACEMENT_3D ( 'NONE', #129, #197, #78 ) ;
#189 = LOCAL_TIME ( 9, 5, 56.00000000000000000, #219 ) ;
#190 = DIRECTION ( 'NONE',  ( -4.275831445896958607E-31, -1.000000000000000000, -1.224646799147353207E-16 ) ) ;
#191 = FACE_OUTER_BOUND ( 'NONE', #148, .T. ) ;
#192 = ADVANCED_FACE ( 'NONE', ( #137 ), #80, .F. ) ;
#193 = DIRECTION ( 'NONE',  ( 0.0000000000000000000, 1.000000000000000000, 0.0000000000000000000 ) ) ;
#194 = PERSON_AND_ORGANIZATION ( #55, #200 ) ;
#195 = CARTESIAN_POINT ( 'NONE',  ( 0.3000000000000048184, 0.0000000000000000000, 1.399999999999998135 ) ) ;
#196 = VERTEX_POINT ( 'NONE', #175 ) ;
#197 = DIRECTION ( 'NONE',  ( -3.491481338843133355E-15, 1.224646799147353207E-16, -1.000000000000000000 ) ) ;
#198 = DIRECTION ( 'NONE',  ( 3.491481338843133355E-15, -0.0000000000000000000, 1.000000000000000000 ) ) ;
#199 = CARTESIAN_POINT ( 'NONE',  ( 0.0000000000000000000, 0.0000000000000000000, 0.0000000000000000000 ) ) ;
#200 = ORGANIZATION ( 'UNSPECIFIED', 'UNSPECIFIED', '' ) ;
#201 = PERSON_AND_ORGANIZATION ( #55, #200 ) ;
#202 = EDGE_LOOP ( 'NONE', ( #91 ) ) ;
#203 = AXIS2_PLACEMENT_3D ( 'NONE', #57, #132, #2 ) ;
#204 = ORIENTED_EDGE ( 'NONE', *, *, #74, .T. ) ;
#205 = SECURITY_CLASSIFICATION ( '', '', #8 ) ;
#206 = PLANE ( 'NONE',  #77 ) ;
#207 = CC_DESIGN_PERSON_AND_ORGANIZATION_ASSIGNMENT ( #201, #238, ( #209 ) ) ;
#208 = CLOSED_SHELL ( 'NONE', ( #140, #95, #63 ) ) ;
#209 = PRODUCT_DEFINITION_FORMATION_WITH_SPECIFIED_SOURCE ( 'ANY', '', #123, .NOT_KNOWN. ) ;
#210 = CARTESIAN_POINT ( 'NONE',  ( 0.0000000000000000000, 0.0000000000000000000, 0.0000000000000000000 ) ) ;
#211 = FACE_OUTER_BOUND ( 'NONE', #52, .T. ) ;
#212 = MANIFOLD_SOLID_BREP ( 'Corps-Déplacer/Copier1[1]', #185 ) ;
#213 = FACE_BOUND ( 'NONE', #162, .T. ) ;
#214 = TOROIDAL_SURFACE ( 'NONE', #112, 2.299999999999999822, 2.000000000000000000 ) ;
#215 = PERSON_AND_ORGANIZATION_ROLE ( 'design_owner' ) ;
#216 = CARTESIAN_POINT ( 'NONE',  ( -1.710332578358783092E-30, 0.0000000000000000000, -4.898587196589412829E-16 ) ) ;
#217 = ADVANCED_FACE ( 'NONE', ( #211, #232 ), #227, .T. ) ;
#218 = ORIENTED_EDGE ( 'NONE', *, *, #104, .T. ) ;
#219 = COORDINATED_UNIVERSAL_TIME_OFFSET ( 1, 0, .AHEAD. ) ;
#220 = ORIENTED_EDGE ( 'NONE', *, *, #40, .T. ) ;
#221 = CIRCLE ( 'NONE', #170, 2.000000000000000000 ) ;
#222 = CIRCLE ( 'NONE', #152, 0.2999999999999999334 ) ;
#223 = ORIENTED_EDGE ( 'NONE', *, *, #27, .T. ) ;
#224 = DIRECTION ( 'NONE',  ( 1.000000000000000000, 0.0000000000000000000, -3.534017240859009068E-15 ) ) ;
#225 = DATE_AND_TIME ( #229, #142 ) ;
#226 = DIRECTION ( 'NONE',  ( 1.000000000000000000, 0.0000000000000000000, -3.469446951953614189E-15 ) ) ;
#227 = CONICAL_SURFACE ( 'NONE', #18, 4.000000000000000000, 0.2617993877991428020 ) ;
#228 = COORDINATED_UNIVERSAL_TIME_OFFSET ( 1, 0, .AHEAD. ) ;
#229 = CALENDAR_DATE ( 2021, 15, 11 ) ;
#230 = ADVANCED_FACE ( 'NONE', ( #136, #82 ), #157, .T. ) ;
#231 = DIRECTION ( 'NONE',  ( 3.491481338843133355E-15, -1.224646799147353207E-16, 1.000000000000000000 ) ) ;
#232 = FACE_BOUND ( 'NONE', #243, .T. ) ;
#233 = FACE_OUTER_BOUND ( 'NONE', #126, .T. ) ;
#234 = CARTESIAN_POINT ( 'NONE',  ( 2.000000000000027978, 0.0000000000000000000, 8.007791368042038727 ) ) ;
#235 = CARTESIAN_POINT ( 'NONE',  ( 0.3681483474218666396, 0.0000000000000000000, 1.917638090205026735 ) ) ;
#236 = CYLINDRICAL_SURFACE ( 'NONE', #113, 0.2999999999999999334 ) ;
#237 = LOCAL_TIME ( 9, 5, 56.00000000000000000, #228 ) ;
#238 = PERSON_AND_ORGANIZATION_ROLE ( 'creator' ) ;
#239 = ORIENTED_EDGE ( 'NONE', *, *, #19, .F. ) ;
#240 =( NAMED_UNIT ( * ) PLANE_ANGLE_UNIT ( ) SI_UNIT ( $, .RADIAN. ) );
#241 = CC_DESIGN_APPROVAL ( #187, ( #209 ) ) ;
#242 = APPROVAL_ROLE ( '' ) ;
#243 = EDGE_LOOP ( 'NONE', ( #223 ) ) ;
ENDSEC;
END-ISO-10303-21;
