ISO-10303-21;
HEADER;
FILE_DESCRIPTION (( 'STEP AP203' ),
    '1' );
FILE_NAME ('334945.step',
    '2021-11-15T08:05:56',
    ( '' ),
    ( '' ),
    'SwSTEP 2.0',
    'SolidWorks 2019',
    '' );
FILE_SCHEMA (( 'CONFIG_CONTROL_DESIGN' ));
ENDSEC;

DATA;
#1 = APPROVAL_PERSON_ORGANIZATION ( #179, #124, #214 ) ;
#2 = CALENDAR_DATE ( 2021, 15, 11 ) ;
#3 = PRODUCT_DEFINITION ( 'UNKNOWN', '', #47, #23 ) ;
#4 = PERSON_AND_ORGANIZATION ( #54, #206 ) ;
#5 = EDGE_LOOP ( 'NONE', ( #197 ) ) ;
#6 = APPROVAL ( #62, 'UNSPECIFIED' ) ;
#7 = LOCAL_TIME ( 9, 5, 55.00000000000000000, #186 ) ;
#8 = ADVANCED_BREP_SHAPE_REPRESENTATION ( '334945', ( #37, #119, #57 ), #153 ) ;
#9 = ORIENTED_EDGE ( 'NONE', *, *, #151, .F. ) ;
#10 = DIRECTION ( 'NONE',  ( -3.491481338843133355E-15, 1.224646799147353207E-16, -1.000000000000000000 ) ) ;
#11 = CARTESIAN_POINT ( 'NONE',  ( 3.840629472727444324E-15, 0.0000000000000000000, 1.099999999999999201 ) ) ;
#12 = FACE_OUTER_BOUND ( 'NONE', #219, .T. ) ;
#13 = APPROVAL ( #106, 'UNSPECIFIED' ) ;
#14 = CARTESIAN_POINT ( 'NONE',  ( 1.326762908760390675E-13, -4.653657836759942730E-15, 38.00000000000000711 ) ) ;
#15 = CIRCLE ( 'NONE', #185, 0.2499999999999997780 ) ;
#16 = VERTEX_POINT ( 'NONE', #213 ) ;
#17 = CARTESIAN_POINT ( 'NONE',  ( 0.2500000000000036637, 0.0000000000000000000, 1.099999999999998312 ) ) ;
#18 = AXIS2_PLACEMENT_3D ( 'NONE', #45, #88, #237 ) ;
#19 = CARTESIAN_POINT ( 'NONE',  ( 0.3181483474218658736, 0.0000000000000000000, 1.617638090205027135 ) ) ;
#20 =( NAMED_UNIT ( * ) SI_UNIT ( $, .STERADIAN. ) SOLID_ANGLE_UNIT ( ) );
#21 = CC_DESIGN_DATE_AND_TIME_ASSIGNMENT ( #52, #216, ( #212 ) ) ;
#22 = ORIENTED_EDGE ( 'NONE', *, *, #42, .T. ) ;
#23 = DESIGN_CONTEXT ( 'detailed design', #89, 'design' ) ;
#24 = CARTESIAN_POINT ( 'NONE',  ( -4.275831445896957731E-31, 1.499759782661857608E-32, -1.224646799147353207E-16 ) ) ;
#25 = ADVANCED_FACE ( 'NONE', ( #78 ), #152, .F. ) ;
#26 = CARTESIAN_POINT ( 'NONE',  ( 1.326762908760390675E-13, -8.377713426430119900E-31, 38.00000000000000711 ) ) ;
#27 = DIRECTION ( 'NONE',  ( 1.000000000000000000, 0.0000000000000000000, -3.491481338843132961E-15 ) ) ;
#28 = AXIS2_PLACEMENT_3D ( 'NONE', #24, #180, #157 ) ;
#29 = CARTESIAN_POINT ( 'NONE',  ( 0.0000000000000000000, 0.0000000000000000000, 0.0000000000000000000 ) ) ;
#30 = DIRECTION ( 'NONE',  ( 4.275831445896958607E-31, 1.000000000000000000, 1.224646799147353207E-16 ) ) ;
#31 = PERSON_AND_ORGANIZATION ( #54, #206 ) ;
#32 = DIRECTION ( 'NONE',  ( 1.000000000000000000, 0.0000000000000000000, -3.407851026954628270E-15 ) ) ;
#33 = PERSON_AND_ORGANIZATION ( #54, #206 ) ;
#34 = AXIS2_PLACEMENT_3D ( 'NONE', #29, #155, #84 ) ;
#35 = EDGE_CURVE ( 'NONE', #128, #128, #56, .T. ) ;
#36 = EDGE_LOOP ( 'NONE', ( #38 ) ) ;
#37 = MANIFOLD_SOLID_BREP ( 'Corps-Déplacer/Copier1[1]', #109 ) ;
#38 = ORIENTED_EDGE ( 'NONE', *, *, #142, .F. ) ;
#39 = APPROVAL_ROLE ( '' ) ;
#40 = EDGE_LOOP ( 'NONE', ( #215 ) ) ;
#41 = DIRECTION ( 'NONE',  ( 1.000000000000000000, 0.0000000000000000000, -3.469446951953614189E-15 ) ) ;
#42 = EDGE_CURVE ( 'NONE', #16, #16, #231, .T. ) ;
#43 = DIRECTION ( 'NONE',  ( 1.000000000000000000, 0.0000000000000000000, -3.469446951953617344E-15 ) ) ;
#44 = APPLICATION_CONTEXT ( 'configuration controlled 3d designs of mechanical parts and assemblies' ) ;
#45 = CARTESIAN_POINT ( 'NONE',  ( 1.312796983405018394E-13, -4.604671964794048513E-15, 37.60000000000000853 ) ) ;
#46 = CARTESIAN_POINT ( 'NONE',  ( -1.710332578358783092E-30, 0.0000000000000000000, -4.898587196589412829E-16 ) ) ;
#47 = PRODUCT_DEFINITION_FORMATION_WITH_SPECIFIED_SOURCE ( 'ANY', '', #82, .NOT_KNOWN. ) ;
#48 = DIRECTION ( 'NONE',  ( -3.491481338843133355E-15, 1.224646799147353207E-16, -1.000000000000000000 ) ) ;
#49 = DIRECTION ( 'NONE',  ( 0.0000000000000000000, 0.0000000000000000000, 1.000000000000000000 ) ) ;
#50 = AXIS2_PLACEMENT_3D ( 'NONE', #81, #103, #41 ) ;
#51 = CARTESIAN_POINT ( 'NONE',  ( 5.647953204952700705E-15, 0.0000000000000000000, 1.617638090205028245 ) ) ;
#52 = DATE_AND_TIME ( #76, #99 ) ;
#53 = DIRECTION ( 'NONE',  ( 1.000000000000000000, 0.0000000000000000000, -3.469446951953617344E-15 ) ) ;
#54 = PERSON ( 'UNSPECIFIED', 'UNSPECIFIED', 'UNSPECIFIED', ('UNSPECIFIED'), ('UNSPECIFIED'), ('UNSPECIFIED') ) ;
#55 = CC_DESIGN_DATE_AND_TIME_ASSIGNMENT ( #242, #227, ( #3 ) ) ;
#56 = CIRCLE ( 'NONE', #87, 1.600000000000001865 ) ;
#57 = AXIS2_PLACEMENT_3D ( 'NONE', #92, #49, #211 ) ;
#58 = PERSON_AND_ORGANIZATION_ROLE ( 'creator' ) ;
#59 = EDGE_LOOP ( 'NONE', ( #173 ) ) ;
#60 = EDGE_CURVE ( 'NONE', #168, #168, #105, .T. ) ;
#61 = APPROVAL_PERSON_ORGANIZATION ( #210, #13, #161 ) ;
#62 = APPROVAL_STATUS ( 'not_yet_approved' ) ;
#63 = DIRECTION ( 'NONE',  ( 3.491481338843133355E-15, -1.224646799147353207E-16, 1.000000000000000000 ) ) ;
#64 = ADVANCED_FACE ( 'NONE', ( #118 ), #85, .F. ) ;
#65 = CYLINDRICAL_SURFACE ( 'NONE', #175, 0.2500000000000000000 ) ;
#66 = CARTESIAN_POINT ( 'NONE',  ( 3.840629472727445113E-15, 0.0000000000000000000, 1.099999999999999423 ) ) ;
#67 = CARTESIAN_POINT ( 'NONE',  ( 0.0000000000000000000, 0.0000000000000000000, 0.0000000000000000000 ) ) ;
#68 = DIRECTION ( 'NONE',  ( 3.491481338843133355E-15, -1.224646799147353207E-16, 1.000000000000000000 ) ) ;
#69 = AXIS2_PLACEMENT_3D ( 'NONE', #11, #192, #53 ) ;
#70 = CARTESIAN_POINT ( 'NONE',  ( 2.000000000000027978, 0.0000000000000000000, 7.894393908420484607 ) ) ;
#71 = DATE_AND_TIME ( #162, #7 ) ;
#72 = CC_DESIGN_PERSON_AND_ORGANIZATION_ASSIGNMENT ( #188, #208, ( #212 ) ) ;
#73 = AXIS2_PLACEMENT_3D ( 'NONE', #158, #137, #236 ) ;
#74 = APPLICATION_PROTOCOL_DEFINITION ( 'international standard', 'config_control_design', 1994, #44 ) ;
#75 = EDGE_LOOP ( 'NONE', ( #22 ) ) ;
#76 = CALENDAR_DATE ( 2021, 15, 11 ) ;
#77 = ORIENTED_EDGE ( 'NONE', *, *, #35, .T. ) ;
#78 = FACE_OUTER_BOUND ( 'NONE', #5, .T. ) ;
#79 = APPROVAL_PERSON_ORGANIZATION ( #189, #6, #39 ) ;
#80 = EDGE_LOOP ( 'NONE', ( #154 ) ) ;
#81 = CARTESIAN_POINT ( 'NONE',  ( 2.756312901272705552E-14, 0.0000000000000000000, 7.894393908420490824 ) ) ;
#82 = PRODUCT ( '334945', '334945', '', ( #148 ) ) ;
#83 = CC_DESIGN_APPROVAL ( #13, ( #3 ) ) ;
#84 = DIRECTION ( 'NONE',  ( 4.275831445896958607E-31, 1.000000000000000000, 1.224646799147353207E-16 ) ) ;
#85 = PLANE ( 'NONE',  #196 ) ;
#86 = FACE_OUTER_BOUND ( 'NONE', #116, .T. ) ;
#87 = AXIS2_PLACEMENT_3D ( 'NONE', #14, #48, #178 ) ;
#88 = DIRECTION ( 'NONE',  ( -3.491481338843133355E-15, 1.224646799147353207E-16, -1.000000000000000000 ) ) ;
#89 = APPLICATION_CONTEXT ( 'configuration controlled 3d designs of mechanical parts and assemblies' ) ;
#90 = APPLICATION_PROTOCOL_DEFINITION ( 'international standard', 'config_control_design', 1994, #89 ) ;
#91 = ADVANCED_FACE ( 'NONE', ( #235, #121 ), #183, .T. ) ;
#92 = CARTESIAN_POINT ( 'NONE',  ( 0.0000000000000000000, 0.0000000000000000000, 0.0000000000000000000 ) ) ;
#93 = LOCAL_TIME ( 9, 5, 55.00000000000000000, #187 ) ;
#94 = ADVANCED_FACE ( 'NONE', ( #86, #223 ), #65, .T. ) ;
#95 =( NAMED_UNIT ( * ) PLANE_ANGLE_UNIT ( ) SI_UNIT ( $, .RADIAN. ) );
#96 = ORIENTED_EDGE ( 'NONE', *, *, #60, .F. ) ;
#97 = ORIENTED_EDGE ( 'NONE', *, *, #142, .T. ) ;
#98 = ORIENTED_EDGE ( 'NONE', *, *, #151, .T. ) ;
#99 = LOCAL_TIME ( 9, 5, 55.00000000000000000, #130 ) ;
#100 = CC_DESIGN_PERSON_AND_ORGANIZATION_ASSIGNMENT ( #31, #146, ( #3 ) ) ;
#101 = DIRECTION ( 'NONE',  ( -4.275831445896958607E-31, -1.000000000000000000, -1.224646799147353207E-16 ) ) ;
#102 = DIRECTION ( 'NONE',  ( 1.000000000000000000, 0.0000000000000000000, -3.491481338843133355E-15 ) ) ;
#103 = DIRECTION ( 'NONE',  ( 3.491481338843133355E-15, -0.0000000000000000000, 1.000000000000000000 ) ) ;
#104 = CARTESIAN_POINT ( 'NONE',  ( 3.840629472727445902E-15, -1.192622389734054384E-16, 1.099999999999999645 ) ) ;
#105 = CIRCLE ( 'NONE', #50, 2.000000000000000000 ) ;
#106 = APPROVAL_STATUS ( 'not_yet_approved' ) ;
#107 = PERSON_AND_ORGANIZATION_ROLE ( 'design_owner' ) ;
#108 = VERTEX_POINT ( 'NONE', #19 ) ;
#109 = CLOSED_SHELL ( 'NONE', ( #91, #172, #25, #201, #170, #64 ) ) ;
#110 = CIRCLE ( 'NONE', #69, 0.2499999999999997780 ) ;
#111 = DATE_AND_TIME ( #147, #200 ) ;
#112 = VERTEX_POINT ( 'NONE', #240 ) ;
#113 = EDGE_LOOP ( 'NONE', ( #77 ) ) ;
#114 = CONICAL_SURFACE ( 'NONE', #73, 4.000000000000000000, 0.2617993877991428020 ) ;
#115 = EDGE_LOOP ( 'NONE', ( #218 ) ) ;
#116 = EDGE_LOOP ( 'NONE', ( #97 ) ) ;
#117 = AXIS2_PLACEMENT_3D ( 'NONE', #222, #10, #234 ) ;
#118 = FACE_OUTER_BOUND ( 'NONE', #115, .T. ) ;
#119 = MANIFOLD_SOLID_BREP ( 'Corps-Déplacer/Copier1[2]', #174 ) ;
#120 = FACE_OUTER_BOUND ( 'NONE', #80, .T. ) ;
#121 = FACE_OUTER_BOUND ( 'NONE', #40, .T. ) ;
#122 = CARTESIAN_POINT ( 'NONE',  ( 3.840629472727444324E-15, 0.0000000000000000000, 1.099999999999999201 ) ) ;
#123 = FACE_OUTER_BOUND ( 'NONE', #198, .T. ) ;
#124 = APPROVAL ( #163, 'UNSPECIFIED' ) ;
#125 = CARTESIAN_POINT ( 'NONE',  ( 0.2500000000000002220, 0.0000000000000000000, -1.362729054369725509E-15 ) ) ;
#126 = AXIS2_PLACEMENT_3D ( 'NONE', #202, #63, #101 ) ;
#127 = PERSON_AND_ORGANIZATION_ROLE ( 'design_supplier' ) ;
#128 = VERTEX_POINT ( 'NONE', #167 ) ;
#129 = CC_DESIGN_PERSON_AND_ORGANIZATION_ASSIGNMENT ( #33, #107, ( #82 ) ) ;
#130 = COORDINATED_UNIVERSAL_TIME_OFFSET ( 1, 0, .AHEAD. ) ;
#131 = CC_DESIGN_APPROVAL ( #124, ( #212 ) ) ;
#132 = PERSON_AND_ORGANIZATION ( #54, #206 ) ;
#133 = ORIENTED_EDGE ( 'NONE', *, *, #243, .T. ) ;
#134 = AXIS2_PLACEMENT_3D ( 'NONE', #26, #221, #30 ) ;
#135 = EDGE_LOOP ( 'NONE', ( #171 ) ) ;
#136 = FACE_OUTER_BOUND ( 'NONE', #36, .T. ) ;
#137 = DIRECTION ( 'NONE',  ( 3.491481338843133355E-15, -0.0000000000000000000, 1.000000000000000000 ) ) ;
#138 = PLANE ( 'NONE',  #28 ) ;
#139 = FACE_OUTER_BOUND ( 'NONE', #59, .T. ) ;
#140 = CONICAL_SURFACE ( 'NONE', #18, 1.999999999999999556, 0.7853981633974485010 ) ;
#141 = DIRECTION ( 'NONE',  ( 3.491481338843133355E-15, -0.0000000000000000000, 1.000000000000000000 ) ) ;
#142 = EDGE_CURVE ( 'NONE', #143, #143, #217, .T. ) ;
#143 = VERTEX_POINT ( 'NONE', #125 ) ;
#144 = APPROVAL_DATE_TIME ( #71, #13 ) ;
#145 = CC_DESIGN_SECURITY_CLASSIFICATION ( #212, ( #47 ) ) ;
#146 = PERSON_AND_ORGANIZATION_ROLE ( 'creator' ) ;
#147 = CALENDAR_DATE ( 2021, 15, 11 ) ;
#148 = MECHANICAL_CONTEXT ( 'NONE', #44, 'mechanical' ) ;
#149 = DATE_AND_TIME ( #2, #191 ) ;
#150 = CC_DESIGN_PERSON_AND_ORGANIZATION_ASSIGNMENT ( #132, #127, ( #47 ) ) ;
#151 = EDGE_CURVE ( 'NONE', #112, #112, #15, .T. ) ;
#152 = PLANE ( 'NONE',  #134 ) ;
#153 =( GEOMETRIC_REPRESENTATION_CONTEXT ( 3 ) GLOBAL_UNCERTAINTY_ASSIGNED_CONTEXT ( ( #233 ) ) GLOBAL_UNIT_ASSIGNED_CONTEXT ( ( #228, #95, #20 ) ) REPRESENTATION_CONTEXT ( 'NONE', 'WORKASPACE' ) );
#154 = ORIENTED_EDGE ( 'NONE', *, *, #241, .T. ) ;
#155 = DIRECTION ( 'NONE',  ( -3.491481338843133355E-15, 1.224646799147353207E-16, -1.000000000000000000 ) ) ;
#156 = AXIS2_PLACEMENT_3D ( 'NONE', #46, #159, #203 ) ;
#157 = DIRECTION ( 'NONE',  ( 4.275831445896958607E-31, 1.000000000000000000, 1.224646799147353207E-16 ) ) ;
#158 = CARTESIAN_POINT ( 'NONE',  ( 5.362390051321011111E-14, 0.0000000000000000000, 15.35849552355844416 ) ) ;
#159 = DIRECTION ( 'NONE',  ( 3.491481338843133355E-15, -0.0000000000000000000, 1.000000000000000000 ) ) ;
#160 = AXIS2_PLACEMENT_3D ( 'NONE', #51, #230, #32 ) ;
#161 = APPROVAL_ROLE ( '' ) ;
#162 = CALENDAR_DATE ( 2021, 15, 11 ) ;
#163 = APPROVAL_STATUS ( 'not_yet_approved' ) ;
#164 = CALENDAR_DATE ( 2021, 15, 11 ) ;
#165 = APPROVAL_DATE_TIME ( #111, #124 ) ;
#166 = TOROIDAL_SURFACE ( 'NONE', #181, 2.250000000000000444, 2.000000000000000000 ) ;
#167 = CARTESIAN_POINT ( 'NONE',  ( 1.326762908760390675E-13, 1.599999999999997202, 38.00000000000000711 ) ) ;
#168 = VERTEX_POINT ( 'NONE', #70 ) ;
#169 = COORDINATED_UNIVERSAL_TIME_OFFSET ( 1, 0, .AHEAD. ) ;
#170 = ADVANCED_FACE ( 'NONE', ( #12, #182 ), #114, .T. ) ;
#171 = ORIENTED_EDGE ( 'NONE', *, *, #42, .F. ) ;
#172 = ADVANCED_FACE ( 'NONE', ( #184, #238 ), #140, .T. ) ;
#173 = ORIENTED_EDGE ( 'NONE', *, *, #243, .F. ) ;
#174 = CLOSED_SHELL ( 'NONE', ( #177, #94, #193 ) ) ;
#175 = AXIS2_PLACEMENT_3D ( 'NONE', #67, #141, #102 ) ;
#176 = PRODUCT_DEFINITION_SHAPE ( 'NONE', 'NONE',  #3 ) ;
#177 = ADVANCED_FACE ( 'NONE', ( #123 ), #209, .T. ) ;
#178 = DIRECTION ( 'NONE',  ( 0.0000000000000000000, 1.000000000000000000, 0.0000000000000000000 ) ) ;
#179 = PERSON_AND_ORGANIZATION ( #54, #206 ) ;
#180 = DIRECTION ( 'NONE',  ( -3.491481338843133355E-15, 1.224646799147353207E-16, -1.000000000000000000 ) ) ;
#181 = AXIS2_PLACEMENT_3D ( 'NONE', #66, #204, #27 ) ;
#182 = FACE_BOUND ( 'NONE', #199, .T. ) ;
#183 = CYLINDRICAL_SURFACE ( 'NONE', #34, 2.000000000000000000 ) ;
#184 = FACE_BOUND ( 'NONE', #113, .T. ) ;
#185 = AXIS2_PLACEMENT_3D ( 'NONE', #122, #225, #43 ) ;
#186 = COORDINATED_UNIVERSAL_TIME_OFFSET ( 1, 0, .AHEAD. ) ;
#187 = COORDINATED_UNIVERSAL_TIME_OFFSET ( 1, 0, .AHEAD. ) ;
#188 = PERSON_AND_ORGANIZATION ( #54, #206 ) ;
#189 = PERSON_AND_ORGANIZATION ( #54, #206 ) ;
#190 = COORDINATED_UNIVERSAL_TIME_OFFSET ( 1, 0, .AHEAD. ) ;
#191 = LOCAL_TIME ( 9, 5, 55.00000000000000000, #169 ) ;
#192 = DIRECTION ( 'NONE',  ( 3.491481338843133355E-15, -0.0000000000000000000, 1.000000000000000000 ) ) ;
#193 = ADVANCED_FACE ( 'NONE', ( #136 ), #138, .T. ) ;
#194 = SHAPE_DEFINITION_REPRESENTATION ( #176, #8 ) ;
#195 = EDGE_LOOP ( 'NONE', ( #9 ) ) ;
#196 = AXIS2_PLACEMENT_3D ( 'NONE', #104, #68, #207 ) ;
#197 = ORIENTED_EDGE ( 'NONE', *, *, #35, .F. ) ;
#198 = EDGE_LOOP ( 'NONE', ( #98 ) ) ;
#199 = EDGE_LOOP ( 'NONE', ( #133 ) ) ;
#200 = LOCAL_TIME ( 9, 5, 55.00000000000000000, #190 ) ;
#201 = ADVANCED_FACE ( 'NONE', ( #120, #139 ), #166, .F. ) ;
#202 = CARTESIAN_POINT ( 'NONE',  ( 3.840629472727445902E-15, -1.192622389734054384E-16, 1.099999999999999645 ) ) ;
#203 = DIRECTION ( 'NONE',  ( 1.000000000000000000, 0.0000000000000000000, -3.491481338843133355E-15 ) ) ;
#204 = DIRECTION ( 'NONE',  ( 3.491481338843133355E-15, -0.0000000000000000000, 1.000000000000000000 ) ) ;
#205 = PRODUCT_RELATED_PRODUCT_CATEGORY ( 'detail', '', ( #82 ) ) ;
#206 = ORGANIZATION ( 'UNSPECIFIED', 'UNSPECIFIED', '' ) ;
#207 = DIRECTION ( 'NONE',  ( -4.275831445896958607E-31, -1.000000000000000000, -1.224646799147353207E-16 ) ) ;
#208 = PERSON_AND_ORGANIZATION_ROLE ( 'classification_officer' ) ;
#209 = PLANE ( 'NONE',  #126 ) ;
#210 = PERSON_AND_ORGANIZATION ( #54, #206 ) ;
#211 = DIRECTION ( 'NONE',  ( 1.000000000000000000, 0.0000000000000000000, 0.0000000000000000000 ) ) ;
#212 = SECURITY_CLASSIFICATION ( '', '', #229 ) ;
#213 = CARTESIAN_POINT ( 'NONE',  ( 1.312796983405018394E-13, 1.999999999999994893, 37.60000000000000853 ) ) ;
#214 = APPROVAL_ROLE ( '' ) ;
#215 = ORIENTED_EDGE ( 'NONE', *, *, #60, .T. ) ;
#216 = DATE_TIME_ROLE ( 'classification_date' ) ;
#217 = CIRCLE ( 'NONE', #156, 0.2500000000000002220 ) ;
#218 = ORIENTED_EDGE ( 'NONE', *, *, #241, .F. ) ;
#219 = EDGE_LOOP ( 'NONE', ( #96 ) ) ;
#220 = CC_DESIGN_PERSON_AND_ORGANIZATION_ASSIGNMENT ( #4, #58, ( #47 ) ) ;
#221 = DIRECTION ( 'NONE',  ( -3.491481338843133355E-15, 1.224646799147353207E-16, -1.000000000000000000 ) ) ;
#222 = CARTESIAN_POINT ( 'NONE',  ( 1.312796983405018394E-13, -4.604671964794048513E-15, 37.60000000000000853 ) ) ;
#223 = FACE_OUTER_BOUND ( 'NONE', #195, .T. ) ;
#224 = CC_DESIGN_APPROVAL ( #6, ( #47 ) ) ;
#225 = DIRECTION ( 'NONE',  ( 3.491481338843133355E-15, -0.0000000000000000000, 1.000000000000000000 ) ) ;
#226 = VERTEX_POINT ( 'NONE', #17 ) ;
#227 = DATE_TIME_ROLE ( 'creation_date' ) ;
#228 =( LENGTH_UNIT ( ) NAMED_UNIT ( * ) SI_UNIT ( .MILLI., .METRE. ) );
#229 = SECURITY_CLASSIFICATION_LEVEL ( 'unclassified' ) ;
#230 = DIRECTION ( 'NONE',  ( 3.491481338843133355E-15, -0.0000000000000000000, 1.000000000000000000 ) ) ;
#231 = CIRCLE ( 'NONE', #117, 1.999999999999999556 ) ;
#232 = APPROVAL_DATE_TIME ( #149, #6 ) ;
#233 = UNCERTAINTY_MEASURE_WITH_UNIT (LENGTH_MEASURE( 1.000000000000000082E-05 ), #228, 'distance_accuracy_value', 'NONE');
#234 = DIRECTION ( 'NONE',  ( 0.0000000000000000000, 1.000000000000000000, 0.0000000000000000000 ) ) ;
#235 = FACE_OUTER_BOUND ( 'NONE', #75, .T. ) ;
#236 = DIRECTION ( 'NONE',  ( 1.000000000000000000, 0.0000000000000000000, -3.469446951953614189E-15 ) ) ;
#237 = DIRECTION ( 'NONE',  ( 0.0000000000000000000, 1.000000000000000000, 0.0000000000000000000 ) ) ;
#238 = FACE_OUTER_BOUND ( 'NONE', #135, .T. ) ;
#239 = CIRCLE ( 'NONE', #160, 0.3181483474218602669 ) ;
#240 = CARTESIAN_POINT ( 'NONE',  ( 0.2500000000000036637, 0.0000000000000000000, 1.099999999999998312 ) ) ;
#241 = EDGE_CURVE ( 'NONE', #226, #226, #110, .T. ) ;
#242 = DATE_AND_TIME ( #164, #93 ) ;
#243 = EDGE_CURVE ( 'NONE', #108, #108, #239, .T. ) ;
ENDSEC;
END-ISO-10303-21;
