ISO-10303-21;
HEADER;
FILE_DESCRIPTION (( 'STEP AP203' ),
    '1' );
FILE_NAME ('334944.step',
    '2021-11-15T08:05:55',
    ( '' ),
    ( '' ),
    'SwSTEP 2.0',
    'SolidWorks 2019',
    '' );
FILE_SCHEMA (( 'CONFIG_CONTROL_DESIGN' ));
ENDSEC;

DATA;
#1 = DIRECTION ( 'NONE',  ( 0.0000000000000000000, 0.0000000000000000000, 1.000000000000000000 ) ) ;
#2 = LOCAL_TIME ( 9, 5, 55.00000000000000000, #116 ) ;
#3 = VERTEX_POINT ( 'NONE', #145 ) ;
#4 = CARTESIAN_POINT ( 'NONE',  ( -1.710332578358783092E-30, 0.0000000000000000000, -4.898587196589412829E-16 ) ) ;
#5 =( NAMED_UNIT ( * ) SI_UNIT ( $, .STERADIAN. ) SOLID_ANGLE_UNIT ( ) );
#6 = ADVANCED_FACE ( 'NONE', ( #235, #137 ), #62, .F. ) ;
#7 = CC_DESIGN_PERSON_AND_ORGANIZATION_ASSIGNMENT ( #236, #194, ( #180 ) ) ;
#8 = DIRECTION ( 'NONE',  ( 1.000000000000000000, 0.0000000000000000000, -3.854941057726238689E-15 ) ) ;
#9 = DIRECTION ( 'NONE',  ( -3.491481338843133355E-15, 1.224646799147353207E-16, -1.000000000000000000 ) ) ;
#10 = DATE_AND_TIME ( #218, #2 ) ;
#11 = DIRECTION ( 'NONE',  ( 4.275831445896958607E-31, 1.000000000000000000, 1.224646799147353207E-16 ) ) ;
#12 = DIRECTION ( 'NONE',  ( 1.000000000000000000, 0.0000000000000000000, 0.0000000000000000000 ) ) ;
#13 = CYLINDRICAL_SURFACE ( 'NONE', #119, 2.000000000000000000 ) ;
#14 = DATE_AND_TIME ( #140, #106 ) ;
#15 = ORIENTED_EDGE ( 'NONE', *, *, #224, .F. ) ;
#16 = APPLICATION_CONTEXT ( 'configuration controlled 3d designs of mechanical parts and assemblies' ) ;
#17 = EDGE_LOOP ( 'NONE', ( #15 ) ) ;
#18 = ORIENTED_EDGE ( 'NONE', *, *, #126, .F. ) ;
#19 = LOCAL_TIME ( 9, 5, 55.00000000000000000, #168 ) ;
#20 = AXIS2_PLACEMENT_3D ( 'NONE', #210, #66, #90 ) ;
#21 = CARTESIAN_POINT ( 'NONE',  ( 0.2250000000000034472, 0.0000000000000000000, 0.9999999999999985567 ) ) ;
#22 = CARTESIAN_POINT ( 'NONE',  ( 2.000000000000027978, 0.0000000000000000000, 7.887695178609713587 ) ) ;
#23 = VERTEX_POINT ( 'NONE', #22 ) ;
#24 = ADVANCED_FACE ( 'NONE', ( #98 ), #139, .T. ) ;
#25 = DIRECTION ( 'NONE',  ( 3.491481338843133355E-15, -0.0000000000000000000, 1.000000000000000000 ) ) ;
#26 = PERSON_AND_ORGANIZATION_ROLE ( 'creator' ) ;
#27 = CARTESIAN_POINT ( 'NONE',  ( 1.326762908760390675E-13, -8.377713426430119900E-31, 38.00000000000000711 ) ) ;
#28 = AXIS2_PLACEMENT_3D ( 'NONE', #113, #217, #193 ) ;
#29 = DIRECTION ( 'NONE',  ( -3.491481338843133355E-15, 1.224646799147353207E-16, -1.000000000000000000 ) ) ;
#30 = AXIS2_PLACEMENT_3D ( 'NONE', #61, #49, #95 ) ;
#31 = CARTESIAN_POINT ( 'NONE',  ( 5.360051202308184544E-14, 0.0000000000000000000, 15.35179679374767225 ) ) ;
#32 = DATE_TIME_ROLE ( 'classification_date' ) ;
#33 = PRODUCT_DEFINITION ( 'UNKNOWN', '', #181, #120 ) ;
#34 = ORIENTED_EDGE ( 'NONE', *, *, #51, .T. ) ;
#35 = LOCAL_TIME ( 9, 5, 55.00000000000000000, #216 ) ;
#36 =( NAMED_UNIT ( * ) PLANE_ANGLE_UNIT ( ) SI_UNIT ( $, .RADIAN. ) );
#37 = AXIS2_PLACEMENT_3D ( 'NONE', #104, #57, #167 ) ;
#38 = DIRECTION ( 'NONE',  ( 4.275831445896958607E-31, 1.000000000000000000, 1.224646799147353207E-16 ) ) ;
#39 = DIRECTION ( 'NONE',  ( 3.491481338843133355E-15, -0.0000000000000000000, 1.000000000000000000 ) ) ;
#40 = MANIFOLD_SOLID_BREP ( 'Corps-Déplacer/Copier1[1]', #129 ) ;
#41 = ADVANCED_BREP_SHAPE_REPRESENTATION ( '334944', ( #40, #200, #124 ), #142 ) ;
#42 = APPLICATION_PROTOCOL_DEFINITION ( 'international standard', 'config_control_design', 1994, #242 ) ;
#43 = PERSON_AND_ORGANIZATION_ROLE ( 'design_owner' ) ;
#44 = CARTESIAN_POINT ( 'NONE',  ( 3.491481338843132566E-15, -1.084202172485504311E-16, 0.9999999999999997780 ) ) ;
#45 = APPROVAL_STATUS ( 'not_yet_approved' ) ;
#46 = EDGE_LOOP ( 'NONE', ( #67 ) ) ;
#47 = AXIS2_PLACEMENT_3D ( 'NONE', #114, #174, #8 ) ;
#48 = APPROVAL_DATE_TIME ( #136, #182 ) ;
#49 = DIRECTION ( 'NONE',  ( 3.491481338843133355E-15, -0.0000000000000000000, 1.000000000000000000 ) ) ;
#50 = APPROVAL_ROLE ( '' ) ;
#51 = EDGE_CURVE ( 'NONE', #87, #87, #227, .T. ) ;
#52 = AXIS2_PLACEMENT_3D ( 'NONE', #128, #187, #186 ) ;
#53 = UNCERTAINTY_MEASURE_WITH_UNIT (LENGTH_MEASURE( 1.000000000000000082E-05 ), #144, 'distance_accuracy_value', 'NONE');
#54 = ADVANCED_FACE ( 'NONE', ( #190 ), #172, .F. ) ;
#55 = PLANE ( 'NONE',  #169 ) ;
#56 = AXIS2_PLACEMENT_3D ( 'NONE', #230, #39, #243 ) ;
#57 = DIRECTION ( 'NONE',  ( 3.491481338843133355E-15, -0.0000000000000000000, 1.000000000000000000 ) ) ;
#58 = CALENDAR_DATE ( 2021, 15, 11 ) ;
#59 = DIRECTION ( 'NONE',  ( 3.491481338843133355E-15, -1.224646799147353207E-16, 1.000000000000000000 ) ) ;
#60 = ORIENTED_EDGE ( 'NONE', *, *, #141, .T. ) ;
#61 = CARTESIAN_POINT ( 'NONE',  ( 3.491481338843131778E-15, 0.0000000000000000000, 0.9999999999999995559 ) ) ;
#62 = TOROIDAL_SURFACE ( 'NONE', #30, 2.224999999999999645, 2.000000000000000000 ) ;
#63 = COORDINATED_UNIVERSAL_TIME_OFFSET ( 1, 0, .AHEAD. ) ;
#64 = CC_DESIGN_PERSON_AND_ORGANIZATION_ASSIGNMENT ( #94, #26, ( #181 ) ) ;
#65 = DIRECTION ( 'NONE',  ( 4.275831445896958607E-31, 1.000000000000000000, 1.224646799147353207E-16 ) ) ;
#66 = DIRECTION ( 'NONE',  ( 3.491481338843133355E-15, -1.224646799147353207E-16, 1.000000000000000000 ) ) ;
#67 = ORIENTED_EDGE ( 'NONE', *, *, #109, .T. ) ;
#68 = ADVANCED_FACE ( 'NONE', ( #93, #152 ), #147, .T. ) ;
#69 = DIRECTION ( 'NONE',  ( 1.000000000000000000, 0.0000000000000000000, -3.469446951953614189E-15 ) ) ;
#70 = VERTEX_POINT ( 'NONE', #166 ) ;
#71 = CARTESIAN_POINT ( 'NONE',  ( -4.275831445896957731E-31, 1.499759782661857608E-32, -1.224646799147353207E-16 ) ) ;
#72 = CARTESIAN_POINT ( 'NONE',  ( 0.0000000000000000000, 0.0000000000000000000, 0.0000000000000000000 ) ) ;
#73 = LOCAL_TIME ( 9, 5, 55.00000000000000000, #189 ) ;
#74 = CALENDAR_DATE ( 2021, 15, 11 ) ;
#75 = DATE_TIME_ROLE ( 'creation_date' ) ;
#76 = PERSON_AND_ORGANIZATION ( #89, #164 ) ;
#77 = DIRECTION ( 'NONE',  ( 1.000000000000000000, 0.0000000000000000000, -3.469446951953614189E-15 ) ) ;
#78 = PERSON_AND_ORGANIZATION ( #89, #164 ) ;
#79 = FACE_OUTER_BOUND ( 'NONE', #122, .T. ) ;
#80 = AXIS2_PLACEMENT_3D ( 'NONE', #229, #183, #188 ) ;
#81 = CLOSED_SHELL ( 'NONE', ( #24, #204, #232 ) ) ;
#82 = EDGE_LOOP ( 'NONE', ( #34 ) ) ;
#83 = APPROVAL_PERSON_ORGANIZATION ( #159, #206, #138 ) ;
#84 = ADVANCED_FACE ( 'NONE', ( #134, #79 ), #85, .T. ) ;
#85 = CONICAL_SURFACE ( 'NONE', #28, 1.999999999999999556, 0.7853981633974485010 ) ;
#86 = CC_DESIGN_PERSON_AND_ORGANIZATION_ASSIGNMENT ( #76, #91, ( #181 ) ) ;
#87 = VERTEX_POINT ( 'NONE', #21 ) ;
#88 = VERTEX_POINT ( 'NONE', #212 ) ;
#89 = PERSON ( 'UNSPECIFIED', 'UNSPECIFIED', 'UNSPECIFIED', ('UNSPECIFIED'), ('UNSPECIFIED'), ('UNSPECIFIED') ) ;
#90 = DIRECTION ( 'NONE',  ( -4.275831445896958607E-31, -1.000000000000000000, -1.224646799147353207E-16 ) ) ;
#91 = PERSON_AND_ORGANIZATION_ROLE ( 'design_supplier' ) ;
#92 = ADVANCED_FACE ( 'NONE', ( #177, #219 ), #13, .T. ) ;
#93 = FACE_OUTER_BOUND ( 'NONE', #154, .T. ) ;
#94 = PERSON_AND_ORGANIZATION ( #89, #164 ) ;
#95 = DIRECTION ( 'NONE',  ( 1.000000000000000000, 0.0000000000000000000, -3.491481338843133750E-15 ) ) ;
#96 = APPLICATION_PROTOCOL_DEFINITION ( 'international standard', 'config_control_design', 1994, #16 ) ;
#97 = AXIS2_PLACEMENT_3D ( 'NONE', #31, #234, #77 ) ;
#98 = FACE_OUTER_BOUND ( 'NONE', #82, .T. ) ;
#99 = EDGE_LOOP ( 'NONE', ( #237 ) ) ;
#100 = EDGE_LOOP ( 'NONE', ( #162 ) ) ;
#101 = ADVANCED_FACE ( 'NONE', ( #121 ), #220, .F. ) ;
#102 = CYLINDRICAL_SURFACE ( 'NONE', #150, 0.2249999999999999500 ) ;
#103 = AXIS2_PLACEMENT_3D ( 'NONE', #226, #108, #69 ) ;
#104 = CARTESIAN_POINT ( 'NONE',  ( 3.491481338843130989E-15, 0.0000000000000000000, 0.9999999999999993339 ) ) ;
#105 = FACE_OUTER_BOUND ( 'NONE', #223, .T. ) ;
#106 = LOCAL_TIME ( 9, 5, 55.00000000000000000, #63 ) ;
#107 = DIRECTION ( 'NONE',  ( 1.000000000000000000, 0.0000000000000000000, -3.491481338843133355E-15 ) ) ;
#108 = DIRECTION ( 'NONE',  ( 3.491481338843133355E-15, -0.0000000000000000000, 1.000000000000000000 ) ) ;
#109 = EDGE_CURVE ( 'NONE', #3, #3, #161, .T. ) ;
#110 = PERSON_AND_ORGANIZATION ( #89, #164 ) ;
#111 = PRODUCT_RELATED_PRODUCT_CATEGORY ( 'detail', '', ( #241 ) ) ;
#112 = ORIENTED_EDGE ( 'NONE', *, *, #130, .F. ) ;
#113 = CARTESIAN_POINT ( 'NONE',  ( 1.312796983405018394E-13, -4.604671964794048513E-15, 37.60000000000000853 ) ) ;
#114 = CARTESIAN_POINT ( 'NONE',  ( 3.491481338843130989E-15, 0.0000000000000000000, 0.9999999999999993339 ) ) ;
#115 = PERSON_AND_ORGANIZATION_ROLE ( 'creator' ) ;
#116 = COORDINATED_UNIVERSAL_TIME_OFFSET ( 1, 0, .AHEAD. ) ;
#117 = APPROVAL_PERSON_ORGANIZATION ( #173, #182, #50 ) ;
#118 = EDGE_LOOP ( 'NONE', ( #201 ) ) ;
#119 = AXIS2_PLACEMENT_3D ( 'NONE', #158, #29, #65 ) ;
#120 = DESIGN_CONTEXT ( 'detailed design', #16, 'design' ) ;
#121 = FACE_OUTER_BOUND ( 'NONE', #213, .T. ) ;
#122 = EDGE_LOOP ( 'NONE', ( #18 ) ) ;
#123 = ORIENTED_EDGE ( 'NONE', *, *, #141, .F. ) ;
#124 = AXIS2_PLACEMENT_3D ( 'NONE', #208, #1, #12 ) ;
#125 = FACE_OUTER_BOUND ( 'NONE', #46, .T. ) ;
#126 = EDGE_CURVE ( 'NONE', #148, #148, #184, .T. ) ;
#127 = CIRCLE ( 'NONE', #37, 0.2249999999999999500 ) ;
#128 = CARTESIAN_POINT ( 'NONE',  ( 1.326762908760390675E-13, -4.653657836759942730E-15, 38.00000000000000711 ) ) ;
#129 = CLOSED_SHELL ( 'NONE', ( #92, #84, #54, #6, #68, #101 ) ) ;
#130 = EDGE_CURVE ( 'NONE', #88, #88, #127, .T. ) ;
#131 = PRODUCT_DEFINITION_SHAPE ( 'NONE', 'NONE',  #33 ) ;
#132 = APPROVAL_STATUS ( 'not_yet_approved' ) ;
#133 = ORIENTED_EDGE ( 'NONE', *, *, #51, .F. ) ;
#134 = FACE_BOUND ( 'NONE', #202, .T. ) ;
#135 = APPROVAL_PERSON_ORGANIZATION ( #78, #197, #157 ) ;
#136 = DATE_AND_TIME ( #74, #35 ) ;
#137 = FACE_OUTER_BOUND ( 'NONE', #143, .T. ) ;
#138 = APPROVAL_ROLE ( '' ) ;
#139 = PLANE ( 'NONE',  #203 ) ;
#140 = CALENDAR_DATE ( 2021, 15, 11 ) ;
#141 = EDGE_CURVE ( 'NONE', #146, #146, #231, .T. ) ;
#142 =( GEOMETRIC_REPRESENTATION_CONTEXT ( 3 ) GLOBAL_UNCERTAINTY_ASSIGNED_CONTEXT ( ( #53 ) ) GLOBAL_UNIT_ASSIGNED_CONTEXT ( ( #144, #36, #5 ) ) REPRESENTATION_CONTEXT ( 'NONE', 'WORKASPACE' ) );
#143 = EDGE_LOOP ( 'NONE', ( #123 ) ) ;
#144 =( LENGTH_UNIT ( ) NAMED_UNIT ( * ) SI_UNIT ( .MILLI., .METRE. ) );
#145 = CARTESIAN_POINT ( 'NONE',  ( 0.2249999999999999500, 0.0000000000000000000, -1.275442020898645992E-15 ) ) ;
#146 = VERTEX_POINT ( 'NONE', #165 ) ;
#147 = CONICAL_SURFACE ( 'NONE', #97, 4.000000000000000000, 0.2617993877991428020 ) ;
#148 = VERTEX_POINT ( 'NONE', #185 ) ;
#149 = CC_DESIGN_PERSON_AND_ORGANIZATION_ASSIGNMENT ( #110, #115, ( #33 ) ) ;
#150 = AXIS2_PLACEMENT_3D ( 'NONE', #72, #25, #107 ) ;
#151 = DATE_AND_TIME ( #199, #73 ) ;
#152 = FACE_BOUND ( 'NONE', #198, .T. ) ;
#153 = SECURITY_CLASSIFICATION_LEVEL ( 'unclassified' ) ;
#154 = EDGE_LOOP ( 'NONE', ( #170 ) ) ;
#155 = SHAPE_DEFINITION_REPRESENTATION ( #131, #41 ) ;
#156 = ORIENTED_EDGE ( 'NONE', *, *, #178, .T. ) ;
#157 = APPROVAL_ROLE ( '' ) ;
#158 = CARTESIAN_POINT ( 'NONE',  ( 0.0000000000000000000, 0.0000000000000000000, 0.0000000000000000000 ) ) ;
#159 = PERSON_AND_ORGANIZATION ( #89, #164 ) ;
#160 = CC_DESIGN_PERSON_AND_ORGANIZATION_ASSIGNMENT ( #179, #43, ( #241 ) ) ;
#161 = CIRCLE ( 'NONE', #192, 0.2249999999999999500 ) ;
#162 = ORIENTED_EDGE ( 'NONE', *, *, #130, .T. ) ;
#163 = AXIS2_PLACEMENT_3D ( 'NONE', #27, #9, #11 ) ;
#164 = ORGANIZATION ( 'UNSPECIFIED', 'UNSPECIFIED', '' ) ;
#165 = CARTESIAN_POINT ( 'NONE',  ( 0.2931483474218648522, 0.0000000000000000000, 1.517638090205027268 ) ) ;
#166 = CARTESIAN_POINT ( 'NONE',  ( 1.326762908760390675E-13, 1.599999999999997202, 38.00000000000000711 ) ) ;
#167 = DIRECTION ( 'NONE',  ( 1.000000000000000000, 0.0000000000000000000, -3.854941057726238689E-15 ) ) ;
#168 = COORDINATED_UNIVERSAL_TIME_OFFSET ( 1, 0, .AHEAD. ) ;
#169 = AXIS2_PLACEMENT_3D ( 'NONE', #71, #228, #38 ) ;
#170 = ORIENTED_EDGE ( 'NONE', *, *, #178, .F. ) ;
#171 = APPROVAL_STATUS ( 'not_yet_approved' ) ;
#172 = PLANE ( 'NONE',  #163 ) ;
#173 = PERSON_AND_ORGANIZATION ( #89, #164 ) ;
#174 = DIRECTION ( 'NONE',  ( 3.491481338843133355E-15, -0.0000000000000000000, 1.000000000000000000 ) ) ;
#175 = CC_DESIGN_APPROVAL ( #197, ( #181 ) ) ;
#176 = MECHANICAL_CONTEXT ( 'NONE', #242, 'mechanical' ) ;
#177 = FACE_OUTER_BOUND ( 'NONE', #118, .T. ) ;
#178 = EDGE_CURVE ( 'NONE', #23, #23, #221, .T. ) ;
#179 = PERSON_AND_ORGANIZATION ( #89, #164 ) ;
#180 = SECURITY_CLASSIFICATION ( '', '', #153 ) ;
#181 = PRODUCT_DEFINITION_FORMATION_WITH_SPECIFIED_SOURCE ( 'ANY', '', #241, .NOT_KNOWN. ) ;
#182 = APPROVAL ( #132, 'UNSPECIFIED' ) ;
#183 = DIRECTION ( 'NONE',  ( -3.491481338843133355E-15, 1.224646799147353207E-16, -1.000000000000000000 ) ) ;
#184 = CIRCLE ( 'NONE', #80, 1.999999999999999556 ) ;
#185 = CARTESIAN_POINT ( 'NONE',  ( 1.312796983405018394E-13, 1.999999999999994893, 37.60000000000000853 ) ) ;
#186 = DIRECTION ( 'NONE',  ( 0.0000000000000000000, 1.000000000000000000, 0.0000000000000000000 ) ) ;
#187 = DIRECTION ( 'NONE',  ( -3.491481338843133355E-15, 1.224646799147353207E-16, -1.000000000000000000 ) ) ;
#188 = DIRECTION ( 'NONE',  ( 0.0000000000000000000, 1.000000000000000000, 0.0000000000000000000 ) ) ;
#189 = COORDINATED_UNIVERSAL_TIME_OFFSET ( 1, 0, .AHEAD. ) ;
#190 = FACE_OUTER_BOUND ( 'NONE', #17, .T. ) ;
#191 = APPROVAL_DATE_TIME ( #151, #197 ) ;
#192 = AXIS2_PLACEMENT_3D ( 'NONE', #4, #225, #211 ) ;
#193 = DIRECTION ( 'NONE',  ( 0.0000000000000000000, 1.000000000000000000, 0.0000000000000000000 ) ) ;
#194 = PERSON_AND_ORGANIZATION_ROLE ( 'classification_officer' ) ;
#195 = ORIENTED_EDGE ( 'NONE', *, *, #224, .T. ) ;
#196 = DATE_AND_TIME ( #58, #19 ) ;
#197 = APPROVAL ( #45, 'UNSPECIFIED' ) ;
#198 = EDGE_LOOP ( 'NONE', ( #60 ) ) ;
#199 = CALENDAR_DATE ( 2021, 15, 11 ) ;
#200 = MANIFOLD_SOLID_BREP ( 'Corps-Déplacer/Copier1[2]', #81 ) ;
#201 = ORIENTED_EDGE ( 'NONE', *, *, #126, .T. ) ;
#202 = EDGE_LOOP ( 'NONE', ( #195 ) ) ;
#203 = AXIS2_PLACEMENT_3D ( 'NONE', #44, #59, #215 ) ;
#204 = ADVANCED_FACE ( 'NONE', ( #125, #105 ), #102, .T. ) ;
#205 = FACE_OUTER_BOUND ( 'NONE', #99, .T. ) ;
#206 = APPROVAL ( #171, 'UNSPECIFIED' ) ;
#207 = CC_DESIGN_APPROVAL ( #206, ( #180 ) ) ;
#208 = CARTESIAN_POINT ( 'NONE',  ( 0.0000000000000000000, 0.0000000000000000000, 0.0000000000000000000 ) ) ;
#209 = CIRCLE ( 'NONE', #52, 1.600000000000001865 ) ;
#210 = CARTESIAN_POINT ( 'NONE',  ( 3.491481338843132566E-15, -1.084202172485504311E-16, 0.9999999999999997780 ) ) ;
#211 = DIRECTION ( 'NONE',  ( 1.000000000000000000, 0.0000000000000000000, -3.491481338843133355E-15 ) ) ;
#212 = CARTESIAN_POINT ( 'NONE',  ( 0.2250000000000034472, 0.0000000000000000000, 0.9999999999999985567 ) ) ;
#213 = EDGE_LOOP ( 'NONE', ( #112 ) ) ;
#214 = APPROVAL_DATE_TIME ( #196, #206 ) ;
#215 = DIRECTION ( 'NONE',  ( -4.275831445896958607E-31, -1.000000000000000000, -1.224646799147353207E-16 ) ) ;
#216 = COORDINATED_UNIVERSAL_TIME_OFFSET ( 1, 0, .AHEAD. ) ;
#217 = DIRECTION ( 'NONE',  ( -3.491481338843133355E-15, 1.224646799147353207E-16, -1.000000000000000000 ) ) ;
#218 = CALENDAR_DATE ( 2021, 15, 11 ) ;
#219 = FACE_OUTER_BOUND ( 'NONE', #238, .T. ) ;
#220 = PLANE ( 'NONE',  #20 ) ;
#221 = CIRCLE ( 'NONE', #103, 2.000000000000000000 ) ;
#222 = CC_DESIGN_APPROVAL ( #182, ( #33 ) ) ;
#223 = EDGE_LOOP ( 'NONE', ( #133 ) ) ;
#224 = EDGE_CURVE ( 'NONE', #70, #70, #209, .T. ) ;
#225 = DIRECTION ( 'NONE',  ( 3.491481338843133355E-15, -0.0000000000000000000, 1.000000000000000000 ) ) ;
#226 = CARTESIAN_POINT ( 'NONE',  ( 2.753974052259879615E-14, 0.0000000000000000000, 7.887695178609720692 ) ) ;
#227 = CIRCLE ( 'NONE', #47, 0.2249999999999999500 ) ;
#228 = DIRECTION ( 'NONE',  ( -3.491481338843133355E-15, 1.224646799147353207E-16, -1.000000000000000000 ) ) ;
#229 = CARTESIAN_POINT ( 'NONE',  ( 1.312796983405018394E-13, -4.604671964794048513E-15, 37.60000000000000853 ) ) ;
#230 = CARTESIAN_POINT ( 'NONE',  ( 5.298805071068388947E-15, 0.0000000000000000000, 1.517638090205028378 ) ) ;
#231 = CIRCLE ( 'NONE', #56, 0.2931483474218595231 ) ;
#232 = ADVANCED_FACE ( 'NONE', ( #205 ), #55, .T. ) ;
#233 = CC_DESIGN_DATE_AND_TIME_ASSIGNMENT ( #14, #32, ( #180 ) ) ;
#234 = DIRECTION ( 'NONE',  ( 3.491481338843133355E-15, -0.0000000000000000000, 1.000000000000000000 ) ) ;
#235 = FACE_OUTER_BOUND ( 'NONE', #100, .T. ) ;
#236 = PERSON_AND_ORGANIZATION ( #89, #164 ) ;
#237 = ORIENTED_EDGE ( 'NONE', *, *, #109, .F. ) ;
#238 = EDGE_LOOP ( 'NONE', ( #156 ) ) ;
#239 = CC_DESIGN_DATE_AND_TIME_ASSIGNMENT ( #10, #75, ( #33 ) ) ;
#240 = CC_DESIGN_SECURITY_CLASSIFICATION ( #180, ( #181 ) ) ;
#241 = PRODUCT ( '334944', '334944', '', ( #176 ) ) ;
#242 = APPLICATION_CONTEXT ( 'configuration controlled 3d designs of mechanical parts and assemblies' ) ;
#243 = DIRECTION ( 'NONE',  ( 1.000000000000000000, 0.0000000000000000000, -3.698476153867813419E-15 ) ) ;
ENDSEC;
END-ISO-10303-21;
