ISO-10303-21;
HEADER;
FILE_DESCRIPTION (( 'STEP AP203' ),
    '1' );
FILE_NAME ('334943.step',
    '2021-11-15T08:05:55',
    ( '' ),
    ( '' ),
    'SwSTEP 2.0',
    'SolidWorks 2019',
    '' );
FILE_SCHEMA (( 'CONFIG_CONTROL_DESIGN' ));
ENDSEC;

DATA;
#1 = FACE_OUTER_BOUND ( 'NONE', #218, .T. ) ;
#2 = PERSON_AND_ORGANIZATION ( #180, #109 ) ;
#3 = CALENDAR_DATE ( 2021, 15, 11 ) ;
#4 = LOCAL_TIME ( 9, 5, 55.00000000000000000, #172 ) ;
#5 = DATE_AND_TIME ( #136, #38 ) ;
#6 = FACE_OUTER_BOUND ( 'NONE', #142, .T. ) ;
#7 = CIRCLE ( 'NONE', #43, 0.2000000000000000944 ) ;
#8 = COORDINATED_UNIVERSAL_TIME_OFFSET ( 1, 0, .AHEAD. ) ;
#9 = EDGE_LOOP ( 'NONE', ( #161 ) ) ;
#10 = DATE_AND_TIME ( #103, #66 ) ;
#11 = DIRECTION ( 'NONE',  ( 4.275831445896958607E-31, 1.000000000000000000, 1.224646799147353207E-16 ) ) ;
#12 = DIRECTION ( 'NONE',  ( 3.491481338843133355E-15, -0.0000000000000000000, 1.000000000000000000 ) ) ;
#13 = DIRECTION ( 'NONE',  ( -3.491481338843133355E-15, 1.224646799147353207E-16, -1.000000000000000000 ) ) ;
#14 = DIRECTION ( 'NONE',  ( -3.491481338843133355E-15, 1.224646799147353207E-16, -1.000000000000000000 ) ) ;
#15 = CARTESIAN_POINT ( 'NONE',  ( 1.312796983405018394E-13, -4.604671964794048513E-15, 37.60000000000000853 ) ) ;
#16 = VERTEX_POINT ( 'NONE', #133 ) ;
#17 = CLOSED_SHELL ( 'NONE', ( #104, #29, #47 ) ) ;
#18 = APPROVAL_PERSON_ORGANIZATION ( #2, #121, #119 ) ;
#19 = DATE_AND_TIME ( #170, #216 ) ;
#20 = VERTEX_POINT ( 'NONE', #46 ) ;
#21 = COORDINATED_UNIVERSAL_TIME_OFFSET ( 1, 0, .AHEAD. ) ;
#22 = CIRCLE ( 'NONE', #51, 0.2000000000000000944 ) ;
#23 = EDGE_LOOP ( 'NONE', ( #32 ) ) ;
#24 = ADVANCED_BREP_SHAPE_REPRESENTATION ( '334943', ( #31, #111, #57 ), #151 ) ;
#25 = PRODUCT_DEFINITION ( 'UNKNOWN', '', #75, #34 ) ;
#26 = DATE_TIME_ROLE ( 'classification_date' ) ;
#27 = EDGE_LOOP ( 'NONE', ( #141 ) ) ;
#28 = AXIS2_PLACEMENT_3D ( 'NONE', #73, #13, #187 ) ;
#29 = ADVANCED_FACE ( 'NONE', ( #6, #54 ), #89, .T. ) ;
#30 = APPROVAL_STATUS ( 'not_yet_approved' ) ;
#31 = MANIFOLD_SOLID_BREP ( 'Corps-Déplacer/Copier1[1]', #211 ) ;
#32 = ORIENTED_EDGE ( 'NONE', *, *, #155, .F. ) ;
#33 = CARTESIAN_POINT ( 'NONE',  ( 1.326762908760390675E-13, -8.377713426430119900E-31, 38.00000000000000711 ) ) ;
#34 = DESIGN_CONTEXT ( 'detailed design', #148, 'design' ) ;
#35 = FACE_BOUND ( 'NONE', #65, .T. ) ;
#36 = DIRECTION ( 'NONE',  ( 4.275831445896958607E-31, 1.000000000000000000, 1.224646799147353207E-16 ) ) ;
#37 = FACE_OUTER_BOUND ( 'NONE', #67, .T. ) ;
#38 = LOCAL_TIME ( 9, 5, 55.00000000000000000, #42 ) ;
#39 = DIRECTION ( 'NONE',  ( 1.000000000000000000, 0.0000000000000000000, -3.491481338843133355E-15 ) ) ;
#40 = CC_DESIGN_PERSON_AND_ORGANIZATION_ASSIGNMENT ( #85, #122, ( #75 ) ) ;
#41 = PERSON_AND_ORGANIZATION_ROLE ( 'design_owner' ) ;
#42 = COORDINATED_UNIVERSAL_TIME_OFFSET ( 1, 0, .AHEAD. ) ;
#43 = AXIS2_PLACEMENT_3D ( 'NONE', #74, #113, #243 ) ;
#44 = EDGE_CURVE ( 'NONE', #58, #58, #240, .T. ) ;
#45 = APPROVAL_STATUS ( 'not_yet_approved' ) ;
#46 = CARTESIAN_POINT ( 'NONE',  ( 1.326762908760390675E-13, 1.599999999999997202, 38.00000000000000711 ) ) ;
#47 = ADVANCED_FACE ( 'NONE', ( #166 ), #130, .T. ) ;
#48 = SECURITY_CLASSIFICATION_LEVEL ( 'unclassified' ) ;
#49 = AXIS2_PLACEMENT_3D ( 'NONE', #90, #53, #163 ) ;
#50 = ORIENTED_EDGE ( 'NONE', *, *, #158, .T. ) ;
#51 = AXIS2_PLACEMENT_3D ( 'NONE', #145, #225, #82 ) ;
#52 = APPROVAL_PERSON_ORGANIZATION ( #64, #72, #230 ) ;
#53 = DIRECTION ( 'NONE',  ( 3.491481338843133355E-15, -0.0000000000000000000, 1.000000000000000000 ) ) ;
#54 = FACE_OUTER_BOUND ( 'NONE', #23, .T. ) ;
#55 = DIRECTION ( 'NONE',  ( 1.000000000000000000, 0.0000000000000000000, -3.469446951953614189E-15 ) ) ;
#56 = CARTESIAN_POINT ( 'NONE',  ( 1.312796983405018394E-13, -4.604671964794048513E-15, 37.60000000000000853 ) ) ;
#57 = AXIS2_PLACEMENT_3D ( 'NONE', #97, #59, #134 ) ;
#58 = VERTEX_POINT ( 'NONE', #76 ) ;
#59 = DIRECTION ( 'NONE',  ( 0.0000000000000000000, 0.0000000000000000000, 1.000000000000000000 ) ) ;
#60 = PRODUCT ( '334943', '334943', '', ( #99 ) ) ;
#61 = VERTEX_POINT ( 'NONE', #100 ) ;
#62 = ADVANCED_FACE ( 'NONE', ( #37, #238 ), #144, .T. ) ;
#63 = ORIENTED_EDGE ( 'NONE', *, *, #196, .F. ) ;
#64 = PERSON_AND_ORGANIZATION ( #180, #109 ) ;
#65 = EDGE_LOOP ( 'NONE', ( #105 ) ) ;
#66 = LOCAL_TIME ( 9, 5, 55.00000000000000000, #8 ) ;
#67 = EDGE_LOOP ( 'NONE', ( #215 ) ) ;
#68 = DIRECTION ( 'NONE',  ( -3.491481338843133355E-15, 1.224646799147353207E-16, -1.000000000000000000 ) ) ;
#69 = ADVANCED_FACE ( 'NONE', ( #126 ), #147, .F. ) ;
#70 = CC_DESIGN_APPROVAL ( #72, ( #118 ) ) ;
#71 = DIRECTION ( 'NONE',  ( -3.491481338843133355E-15, 1.224646799147353207E-16, -1.000000000000000000 ) ) ;
#72 = APPROVAL ( #30, 'UNSPECIFIED' ) ;
#73 = CARTESIAN_POINT ( 'NONE',  ( 1.326762908760390675E-13, -4.653657836759942730E-15, 38.00000000000000711 ) ) ;
#74 = CARTESIAN_POINT ( 'NONE',  ( 3.142333204958817259E-15, 0.0000000000000000000, 0.8999999999999992450 ) ) ;
#75 = PRODUCT_DEFINITION_FORMATION_WITH_SPECIFIED_SOURCE ( 'ANY', '', #60, .NOT_KNOWN. ) ;
#76 = CARTESIAN_POINT ( 'NONE',  ( 1.312796983405018394E-13, 1.999999999999994893, 37.60000000000000853 ) ) ;
#77 = DIRECTION ( 'NONE',  ( 3.491481338843133355E-15, -0.0000000000000000000, 1.000000000000000000 ) ) ;
#78 = PERSON_AND_ORGANIZATION_ROLE ( 'creator' ) ;
#79 = CIRCLE ( 'NONE', #154, 0.2000000000000000944 ) ;
#80 = CARTESIAN_POINT ( 'NONE',  ( 2.000000000000027534, 0.0000000000000000000, 7.880996448798933685 ) ) ;
#81 = ADVANCED_FACE ( 'NONE', ( #1, #223 ), #221, .T. ) ;
#82 = DIRECTION ( 'NONE',  ( 1.000000000000000000, 0.0000000000000000000, -3.252606517456511724E-15 ) ) ;
#83 = AXIS2_PLACEMENT_3D ( 'NONE', #33, #71, #11 ) ;
#84 = DATE_AND_TIME ( #3, #4 ) ;
#85 = PERSON_AND_ORGANIZATION ( #180, #109 ) ;
#86 = PERSON_AND_ORGANIZATION_ROLE ( 'design_supplier' ) ;
#87 = EDGE_LOOP ( 'NONE', ( #197 ) ) ;
#88 = ADVANCED_FACE ( 'NONE', ( #35, #222 ), #213, .T. ) ;
#89 = CYLINDRICAL_SURFACE ( 'NONE', #164, 0.2000000000000000944 ) ;
#90 = CARTESIAN_POINT ( 'NONE',  ( 5.357712353295355452E-14, 0.0000000000000000000, 15.34509806393689324 ) ) ;
#91 = AXIS2_PLACEMENT_3D ( 'NONE', #143, #14, #94 ) ;
#92 = PLANE ( 'NONE',  #189 ) ;
#93 = FACE_OUTER_BOUND ( 'NONE', #27, .T. ) ;
#94 = DIRECTION ( 'NONE',  ( 4.275831445896958607E-31, 1.000000000000000000, 1.224646799147353207E-16 ) ) ;
#95 = PERSON_AND_ORGANIZATION ( #180, #109 ) ;
#96 = CIRCLE ( 'NONE', #231, 2.000000000000000000 ) ;
#97 = CARTESIAN_POINT ( 'NONE',  ( 0.0000000000000000000, 0.0000000000000000000, 0.0000000000000000000 ) ) ;
#98 = EDGE_CURVE ( 'NONE', #153, #153, #106, .T. ) ;
#99 = MECHANICAL_CONTEXT ( 'NONE', #146, 'mechanical' ) ;
#100 = CARTESIAN_POINT ( 'NONE',  ( 0.2000000000000000944, 0.0000000000000000000, -1.188154987427568250E-15 ) ) ;
#101 = APPROVAL ( #188, 'UNSPECIFIED' ) ;
#102 = EDGE_LOOP ( 'NONE', ( #50 ) ) ;
#103 = CALENDAR_DATE ( 2021, 15, 11 ) ;
#104 = ADVANCED_FACE ( 'NONE', ( #93 ), #92, .T. ) ;
#105 = ORIENTED_EDGE ( 'NONE', *, *, #196, .T. ) ;
#106 = CIRCLE ( 'NONE', #202, 0.2681483474218605556 ) ;
#107 = ORIENTED_EDGE ( 'NONE', *, *, #226, .F. ) ;
#108 = APPROVAL_DATE_TIME ( #10, #72 ) ;
#109 = ORGANIZATION ( 'UNSPECIFIED', 'UNSPECIFIED', '' ) ;
#110 = CARTESIAN_POINT ( 'NONE',  ( -1.710332578358783092E-30, 0.0000000000000000000, -4.898587196589412829E-16 ) ) ;
#111 = MANIFOLD_SOLID_BREP ( 'Corps-Déplacer/Copier1[2]', #17 ) ;
#112 = CARTESIAN_POINT ( 'NONE',  ( 2.751635203247050208E-14, 0.0000000000000000000, 7.880996448798939902 ) ) ;
#113 = DIRECTION ( 'NONE',  ( 3.491481338843133355E-15, -0.0000000000000000000, 1.000000000000000000 ) ) ;
#114 = CARTESIAN_POINT ( 'NONE',  ( 0.0000000000000000000, 0.0000000000000000000, 0.0000000000000000000 ) ) ;
#115 = DIRECTION ( 'NONE',  ( 0.0000000000000000000, 1.000000000000000000, 0.0000000000000000000 ) ) ;
#116 = PERSON_AND_ORGANIZATION ( #180, #109 ) ;
#117 = CARTESIAN_POINT ( 'NONE',  ( 0.2681483474218654961, 0.0000000000000000000, 1.417638090205027179 ) ) ;
#118 = SECURITY_CLASSIFICATION ( '', '', #48 ) ;
#119 = APPROVAL_ROLE ( '' ) ;
#120 = APPROVAL_DATE_TIME ( #5, #101 ) ;
#121 = APPROVAL ( #45, 'UNSPECIFIED' ) ;
#122 = PERSON_AND_ORGANIZATION_ROLE ( 'creator' ) ;
#123 = ORIENTED_EDGE ( 'NONE', *, *, #159, .F. ) ;
#124 = AXIS2_PLACEMENT_3D ( 'NONE', #204, #186, #36 ) ;
#125 = ADVANCED_FACE ( 'NONE', ( #242 ), #209, .F. ) ;
#126 = FACE_OUTER_BOUND ( 'NONE', #179, .T. ) ;
#127 = APPROVAL_PERSON_ORGANIZATION ( #116, #101, #173 ) ;
#128 = DIRECTION ( 'NONE',  ( 3.491481338843133355E-15, -0.0000000000000000000, 1.000000000000000000 ) ) ;
#129 = DIRECTION ( 'NONE',  ( 3.491481338843133355E-15, -1.224646799147353207E-16, 1.000000000000000000 ) ) ;
#130 = PLANE ( 'NONE',  #91 ) ;
#131 = CIRCLE ( 'NONE', #28, 1.600000000000001865 ) ;
#132 = DIRECTION ( 'NONE',  ( -3.491481338843133355E-15, 1.224646799147353207E-16, -1.000000000000000000 ) ) ;
#133 = CARTESIAN_POINT ( 'NONE',  ( 0.2000000000000032307, 0.0000000000000000000, 0.8999999999999985789 ) ) ;
#134 = DIRECTION ( 'NONE',  ( 1.000000000000000000, 0.0000000000000000000, 0.0000000000000000000 ) ) ;
#135 = CC_DESIGN_SECURITY_CLASSIFICATION ( #118, ( #75 ) ) ;
#136 = CALENDAR_DATE ( 2021, 15, 11 ) ;
#137 = VERTEX_POINT ( 'NONE', #80 ) ;
#138 = PERSON_AND_ORGANIZATION_ROLE ( 'classification_officer' ) ;
#139 = ORIENTED_EDGE ( 'NONE', *, *, #98, .T. ) ;
#140 = CC_DESIGN_PERSON_AND_ORGANIZATION_ASSIGNMENT ( #178, #86, ( #75 ) ) ;
#141 = ORIENTED_EDGE ( 'NONE', *, *, #155, .T. ) ;
#142 = EDGE_LOOP ( 'NONE', ( #233 ) ) ;
#143 = CARTESIAN_POINT ( 'NONE',  ( -4.275831445896957731E-31, 1.499759782661857608E-32, -1.224646799147353207E-16 ) ) ;
#144 = CONICAL_SURFACE ( 'NONE', #49, 4.000000000000000000, 0.2617993877991428020 ) ;
#145 = CARTESIAN_POINT ( 'NONE',  ( 3.142333204958817259E-15, 0.0000000000000000000, 0.8999999999999992450 ) ) ;
#146 = APPLICATION_CONTEXT ( 'configuration controlled 3d designs of mechanical parts and assemblies' ) ;
#147 = PLANE ( 'NONE',  #185 ) ;
#148 = APPLICATION_CONTEXT ( 'configuration controlled 3d designs of mechanical parts and assemblies' ) ;
#149 = CARTESIAN_POINT ( 'NONE',  ( 4.949656937184074034E-15, 0.0000000000000000000, 1.417638090205028067 ) ) ;
#150 = CARTESIAN_POINT ( 'NONE',  ( 0.2000000000000032307, 0.0000000000000000000, 0.8999999999999985789 ) ) ;
#151 =( GEOMETRIC_REPRESENTATION_CONTEXT ( 3 ) GLOBAL_UNCERTAINTY_ASSIGNED_CONTEXT ( ( #205 ) ) GLOBAL_UNIT_ASSIGNED_CONTEXT ( ( #191, #194, #227 ) ) REPRESENTATION_CONTEXT ( 'NONE', 'WORKASPACE' ) );
#152 = DIRECTION ( 'NONE',  ( 1.000000000000000000, 0.0000000000000000000, -3.491481338843133750E-15 ) ) ;
#153 = VERTEX_POINT ( 'NONE', #117 ) ;
#154 = AXIS2_PLACEMENT_3D ( 'NONE', #110, #184, #39 ) ;
#155 = EDGE_CURVE ( 'NONE', #190, #190, #7, .T. ) ;
#156 = TOROIDAL_SURFACE ( 'NONE', #177, 2.200000000000000622, 2.000000000000000000 ) ;
#157 = EDGE_LOOP ( 'NONE', ( #176 ) ) ;
#158 = EDGE_CURVE ( 'NONE', #137, #137, #96, .T. ) ;
#159 = EDGE_CURVE ( 'NONE', #61, #61, #79, .T. ) ;
#160 = SHAPE_DEFINITION_REPRESENTATION ( #193, #24 ) ;
#161 = ORIENTED_EDGE ( 'NONE', *, *, #98, .F. ) ;
#162 = DIRECTION ( 'NONE',  ( 0.0000000000000000000, 1.000000000000000000, 0.0000000000000000000 ) ) ;
#163 = DIRECTION ( 'NONE',  ( 1.000000000000000000, 0.0000000000000000000, -3.469446951953614189E-15 ) ) ;
#164 = AXIS2_PLACEMENT_3D ( 'NONE', #114, #128, #219 ) ;
#165 = AXIS2_PLACEMENT_3D ( 'NONE', #56, #132, #162 ) ;
#166 = FACE_OUTER_BOUND ( 'NONE', #234, .T. ) ;
#167 = CARTESIAN_POINT ( 'NONE',  ( 3.142333204958818836E-15, -9.757819552369536208E-17, 0.8999999999999996891 ) ) ;
#168 = CC_DESIGN_PERSON_AND_ORGANIZATION_ASSIGNMENT ( #210, #41, ( #60 ) ) ;
#169 = DIRECTION ( 'NONE',  ( 3.491481338843133355E-15, -1.224646799147353207E-16, 1.000000000000000000 ) ) ;
#170 = CALENDAR_DATE ( 2021, 15, 11 ) ;
#171 = DATE_TIME_ROLE ( 'creation_date' ) ;
#172 = COORDINATED_UNIVERSAL_TIME_OFFSET ( 1, 0, .AHEAD. ) ;
#173 = APPROVAL_ROLE ( '' ) ;
#174 = LOCAL_TIME ( 9, 5, 55.00000000000000000, #235 ) ;
#175 = APPLICATION_PROTOCOL_DEFINITION ( 'international standard', 'config_control_design', 1994, #146 ) ;
#176 = ORIENTED_EDGE ( 'NONE', *, *, #226, .T. ) ;
#177 = AXIS2_PLACEMENT_3D ( 'NONE', #212, #77, #152 ) ;
#178 = PERSON_AND_ORGANIZATION ( #180, #109 ) ;
#179 = EDGE_LOOP ( 'NONE', ( #107 ) ) ;
#180 = PERSON ( 'UNSPECIFIED', 'UNSPECIFIED', 'UNSPECIFIED', ('UNSPECIFIED'), ('UNSPECIFIED'), ('UNSPECIFIED') ) ;
#181 = FACE_OUTER_BOUND ( 'NONE', #9, .T. ) ;
#182 = CC_DESIGN_DATE_AND_TIME_ASSIGNMENT ( #19, #171, ( #25 ) ) ;
#183 = FACE_OUTER_BOUND ( 'NONE', #157, .T. ) ;
#184 = DIRECTION ( 'NONE',  ( 3.491481338843133355E-15, -0.0000000000000000000, 1.000000000000000000 ) ) ;
#185 = AXIS2_PLACEMENT_3D ( 'NONE', #239, #169, #207 ) ;
#186 = DIRECTION ( 'NONE',  ( -3.491481338843133355E-15, 1.224646799147353207E-16, -1.000000000000000000 ) ) ;
#187 = DIRECTION ( 'NONE',  ( 0.0000000000000000000, 1.000000000000000000, 0.0000000000000000000 ) ) ;
#188 = APPROVAL_STATUS ( 'not_yet_approved' ) ;
#189 = AXIS2_PLACEMENT_3D ( 'NONE', #167, #129, #206 ) ;
#190 = VERTEX_POINT ( 'NONE', #150 ) ;
#191 =( LENGTH_UNIT ( ) NAMED_UNIT ( * ) SI_UNIT ( .MILLI., .METRE. ) );
#192 = APPLICATION_PROTOCOL_DEFINITION ( 'international standard', 'config_control_design', 1994, #148 ) ;
#193 = PRODUCT_DEFINITION_SHAPE ( 'NONE', 'NONE',  #25 ) ;
#194 =( NAMED_UNIT ( * ) PLANE_ANGLE_UNIT ( ) SI_UNIT ( $, .RADIAN. ) );
#195 = CC_DESIGN_APPROVAL ( #121, ( #75 ) ) ;
#196 = EDGE_CURVE ( 'NONE', #20, #20, #131, .T. ) ;
#197 = ORIENTED_EDGE ( 'NONE', *, *, #44, .F. ) ;
#198 = APPROVAL_DATE_TIME ( #84, #121 ) ;
#199 = EDGE_LOOP ( 'NONE', ( #139 ) ) ;
#200 = DATE_AND_TIME ( #214, #174 ) ;
#201 = DIRECTION ( 'NONE',  ( 1.000000000000000000, 0.0000000000000000000, -3.234633911891461605E-15 ) ) ;
#202 = AXIS2_PLACEMENT_3D ( 'NONE', #149, #12, #201 ) ;
#203 = PRODUCT_RELATED_PRODUCT_CATEGORY ( 'detail', '', ( #60 ) ) ;
#204 = CARTESIAN_POINT ( 'NONE',  ( 0.0000000000000000000, 0.0000000000000000000, 0.0000000000000000000 ) ) ;
#205 = UNCERTAINTY_MEASURE_WITH_UNIT (LENGTH_MEASURE( 1.000000000000000082E-05 ), #191, 'distance_accuracy_value', 'NONE');
#206 = DIRECTION ( 'NONE',  ( -4.275831445896958607E-31, -1.000000000000000000, -1.224646799147353207E-16 ) ) ;
#207 = DIRECTION ( 'NONE',  ( -4.275831445896958607E-31, -1.000000000000000000, -1.224646799147353207E-16 ) ) ;
#208 = ADVANCED_FACE ( 'NONE', ( #183, #181 ), #156, .F. ) ;
#209 = PLANE ( 'NONE',  #83 ) ;
#210 = PERSON_AND_ORGANIZATION ( #180, #109 ) ;
#211 = CLOSED_SHELL ( 'NONE', ( #81, #88, #125, #208, #62, #69 ) ) ;
#212 = CARTESIAN_POINT ( 'NONE',  ( 3.142333204958818048E-15, 0.0000000000000000000, 0.8999999999999994671 ) ) ;
#213 = CONICAL_SURFACE ( 'NONE', #165, 1.999999999999999556, 0.7853981633974485010 ) ;
#214 = CALENDAR_DATE ( 2021, 15, 11 ) ;
#215 = ORIENTED_EDGE ( 'NONE', *, *, #158, .F. ) ;
#216 = LOCAL_TIME ( 9, 5, 55.00000000000000000, #21 ) ;
#217 = EDGE_LOOP ( 'NONE', ( #63 ) ) ;
#218 = EDGE_LOOP ( 'NONE', ( #237 ) ) ;
#219 = DIRECTION ( 'NONE',  ( 1.000000000000000000, 0.0000000000000000000, -3.491481338843133355E-15 ) ) ;
#220 = CC_DESIGN_APPROVAL ( #101, ( #25 ) ) ;
#221 = CYLINDRICAL_SURFACE ( 'NONE', #124, 2.000000000000000000 ) ;
#222 = FACE_OUTER_BOUND ( 'NONE', #87, .T. ) ;
#223 = FACE_OUTER_BOUND ( 'NONE', #102, .T. ) ;
#224 = DIRECTION ( 'NONE',  ( 3.491481338843133355E-15, -0.0000000000000000000, 1.000000000000000000 ) ) ;
#225 = DIRECTION ( 'NONE',  ( 3.491481338843133355E-15, -0.0000000000000000000, 1.000000000000000000 ) ) ;
#226 = EDGE_CURVE ( 'NONE', #16, #16, #22, .T. ) ;
#227 =( NAMED_UNIT ( * ) SI_UNIT ( $, .STERADIAN. ) SOLID_ANGLE_UNIT ( ) );
#228 = AXIS2_PLACEMENT_3D ( 'NONE', #15, #68, #115 ) ;
#229 = CC_DESIGN_PERSON_AND_ORGANIZATION_ASSIGNMENT ( #232, #138, ( #118 ) ) ;
#230 = APPROVAL_ROLE ( '' ) ;
#231 = AXIS2_PLACEMENT_3D ( 'NONE', #112, #224, #55 ) ;
#232 = PERSON_AND_ORGANIZATION ( #180, #109 ) ;
#233 = ORIENTED_EDGE ( 'NONE', *, *, #159, .T. ) ;
#234 = EDGE_LOOP ( 'NONE', ( #123 ) ) ;
#235 = COORDINATED_UNIVERSAL_TIME_OFFSET ( 1, 0, .AHEAD. ) ;
#236 = CC_DESIGN_DATE_AND_TIME_ASSIGNMENT ( #200, #26, ( #118 ) ) ;
#237 = ORIENTED_EDGE ( 'NONE', *, *, #44, .T. ) ;
#238 = FACE_BOUND ( 'NONE', #199, .T. ) ;
#239 = CARTESIAN_POINT ( 'NONE',  ( 3.142333204958818836E-15, -9.757819552369536208E-17, 0.8999999999999996891 ) ) ;
#240 = CIRCLE ( 'NONE', #228, 1.999999999999999556 ) ;
#241 = CC_DESIGN_PERSON_AND_ORGANIZATION_ASSIGNMENT ( #95, #78, ( #25 ) ) ;
#242 = FACE_OUTER_BOUND ( 'NONE', #217, .T. ) ;
#243 = DIRECTION ( 'NONE',  ( 1.000000000000000000, 0.0000000000000000000, -3.252606517456511724E-15 ) ) ;
ENDSEC;
END-ISO-10303-21;
