ISO-10303-21;
HEADER;
FILE_DESCRIPTION (( 'STEP AP203' ),
    '1' );
FILE_NAME ('334942.step',
    '2021-11-15T08:05:54',
    ( '' ),
    ( '' ),
    'SwSTEP 2.0',
    'SolidWorks 2019',
    '' );
FILE_SCHEMA (( 'CONFIG_CONTROL_DESIGN' ));
ENDSEC;

DATA;
#1 = CC_DESIGN_APPROVAL ( #93, ( #191 ) ) ;
#2 = EDGE_LOOP ( 'NONE', ( #103 ) ) ;
#3 = VERTEX_POINT ( 'NONE', #42 ) ;
#4 = DIRECTION ( 'NONE',  ( 3.491481338843133355E-15, -0.0000000000000000000, 1.000000000000000000 ) ) ;
#5 = APPROVAL ( #87, 'UNSPECIFIED' ) ;
#6 = PRODUCT ( '334942', '334942', '', ( #12 ) ) ;
#7 = VERTEX_POINT ( 'NONE', #62 ) ;
#8 = ADVANCED_BREP_SHAPE_REPRESENTATION ( '334942', ( #122, #115, #138 ), #160 ) ;
#9 = VERTEX_POINT ( 'NONE', #123 ) ;
#10 = COORDINATED_UNIVERSAL_TIME_OFFSET ( 1, 0, .AHEAD. ) ;
#11 = APPLICATION_CONTEXT ( 'configuration controlled 3d designs of mechanical parts and assemblies' ) ;
#12 = MECHANICAL_CONTEXT ( 'NONE', #11, 'mechanical' ) ;
#13 = DIRECTION ( 'NONE',  ( 1.000000000000000000, 0.0000000000000000000, 0.0000000000000000000 ) ) ;
#14 = FACE_OUTER_BOUND ( 'NONE', #24, .T. ) ;
#15 = LOCAL_TIME ( 9, 5, 54.00000000000000000, #10 ) ;
#16 = CIRCLE ( 'NONE', #221, 0.2431483474218598395 ) ;
#17 = FACE_OUTER_BOUND ( 'NONE', #163, .T. ) ;
#18 = DIRECTION ( 'NONE',  ( 3.491481338843133355E-15, -0.0000000000000000000, 1.000000000000000000 ) ) ;
#19 = ORIENTED_EDGE ( 'NONE', *, *, #223, .T. ) ;
#20 = CARTESIAN_POINT ( 'NONE',  ( 1.326762908760390675E-13, -8.377713426430119900E-31, 38.00000000000000711 ) ) ;
#21 = APPROVAL ( #220, 'UNSPECIFIED' ) ;
#22 = APPROVAL_PERSON_ORGANIZATION ( #90, #21, #31 ) ;
#23 = DIRECTION ( 'NONE',  ( 4.275831445896958607E-31, 1.000000000000000000, 1.224646799147353207E-16 ) ) ;
#24 = EDGE_LOOP ( 'NONE', ( #155 ) ) ;
#25 = FACE_OUTER_BOUND ( 'NONE', #120, .T. ) ;
#26 = EDGE_LOOP ( 'NONE', ( #60 ) ) ;
#27 =( LENGTH_UNIT ( ) NAMED_UNIT ( * ) SI_UNIT ( .MILLI., .METRE. ) );
#28 = ADVANCED_FACE ( 'NONE', ( #224, #205 ), #215, .T. ) ;
#29 = COORDINATED_UNIVERSAL_TIME_OFFSET ( 1, 0, .AHEAD. ) ;
#30 = APPROVAL_DATE_TIME ( #237, #5 ) ;
#31 = APPROVAL_ROLE ( '' ) ;
#32 = ADVANCED_FACE ( 'NONE', ( #14, #53 ), #38, .T. ) ;
#33 = APPROVAL_ROLE ( '' ) ;
#34 = LOCAL_TIME ( 9, 5, 54.00000000000000000, #92 ) ;
#35 = PLANE ( 'NONE',  #153 ) ;
#36 = ORIENTED_EDGE ( 'NONE', *, *, #192, .F. ) ;
#37 = ORIENTED_EDGE ( 'NONE', *, *, #41, .F. ) ;
#38 = CONICAL_SURFACE ( 'NONE', #101, 4.000000000000000000, 0.2617993877991428020 ) ;
#39 = AXIS2_PLACEMENT_3D ( 'NONE', #197, #40, #23 ) ;
#40 = DIRECTION ( 'NONE',  ( -3.491481338843133355E-15, 1.224646799147353207E-16, -1.000000000000000000 ) ) ;
#41 = EDGE_CURVE ( 'NONE', #234, #234, #121, .T. ) ;
#42 = CARTESIAN_POINT ( 'NONE',  ( 0.1750000000000025979, 0.0000000000000000000, 0.7999999999999986011 ) ) ;
#43 = ORIENTED_EDGE ( 'NONE', *, *, #223, .F. ) ;
#44 = DIRECTION ( 'NONE',  ( 1.000000000000000000, 0.0000000000000000000, -3.567212145117071145E-15 ) ) ;
#45 = DIRECTION ( 'NONE',  ( 3.491481338843133355E-15, -0.0000000000000000000, 1.000000000000000000 ) ) ;
#46 = CIRCLE ( 'NONE', #91, 0.1749999999999998224 ) ;
#47 = CARTESIAN_POINT ( 'NONE',  ( 2.749296354234224587E-14, 0.0000000000000000000, 7.874297718988169770 ) ) ;
#48 = DATE_AND_TIME ( #111, #34 ) ;
#49 = APPLICATION_PROTOCOL_DEFINITION ( 'international standard', 'config_control_design', 1994, #67 ) ;
#50 = FACE_OUTER_BOUND ( 'NONE', #181, .T. ) ;
#51 = DATE_AND_TIME ( #218, #75 ) ;
#52 = APPROVAL_ROLE ( '' ) ;
#53 = FACE_BOUND ( 'NONE', #78, .T. ) ;
#54 = ADVANCED_FACE ( 'NONE', ( #112 ), #35, .F. ) ;
#55 = DIRECTION ( 'NONE',  ( 0.0000000000000000000, 1.000000000000000000, 0.0000000000000000000 ) ) ;
#56 = DIRECTION ( 'NONE',  ( 0.0000000000000000000, 1.000000000000000000, 0.0000000000000000000 ) ) ;
#57 = ADVANCED_FACE ( 'NONE', ( #204 ), #74, .T. ) ;
#58 = AXIS2_PLACEMENT_3D ( 'NONE', #137, #176, #118 ) ;
#59 = VERTEX_POINT ( 'NONE', #124 ) ;
#60 = ORIENTED_EDGE ( 'NONE', *, *, #180, .T. ) ;
#61 = DIRECTION ( 'NONE',  ( 4.275831445896958607E-31, 1.000000000000000000, 1.224646799147353207E-16 ) ) ;
#62 = CARTESIAN_POINT ( 'NONE',  ( 0.1749999999999998224, 0.0000000000000000000, -1.100867953956488733E-15 ) ) ;
#63 = DATE_TIME_ROLE ( 'creation_date' ) ;
#64 = CALENDAR_DATE ( 2021, 15, 11 ) ;
#65 = CC_DESIGN_DATE_AND_TIME_ASSIGNMENT ( #85, #63, ( #98 ) ) ;
#66 = CALENDAR_DATE ( 2021, 15, 11 ) ;
#67 = APPLICATION_CONTEXT ( 'configuration controlled 3d designs of mechanical parts and assemblies' ) ;
#68 = PERSON_AND_ORGANIZATION_ROLE ( 'creator' ) ;
#69 = AXIS2_PLACEMENT_3D ( 'NONE', #165, #77, #228 ) ;
#70 = ADVANCED_FACE ( 'NONE', ( #239 ), #219, .F. ) ;
#71 = DIRECTION ( 'NONE',  ( -3.491481338843133355E-15, 1.224646799147353207E-16, -1.000000000000000000 ) ) ;
#72 = EDGE_LOOP ( 'NONE', ( #36 ) ) ;
#73 = ADVANCED_FACE ( 'NONE', ( #50, #132 ), #95, .F. ) ;
#74 = PLANE ( 'NONE',  #86 ) ;
#75 = LOCAL_TIME ( 9, 5, 54.00000000000000000, #187 ) ;
#76 = CARTESIAN_POINT ( 'NONE',  ( 1.312796983405018394E-13, -4.604671964794048513E-15, 37.60000000000000853 ) ) ;
#77 = DIRECTION ( 'NONE',  ( 3.491481338843133355E-15, -0.0000000000000000000, 1.000000000000000000 ) ) ;
#78 = EDGE_LOOP ( 'NONE', ( #125 ) ) ;
#79 = DIRECTION ( 'NONE',  ( 1.000000000000000000, 0.0000000000000000000, -3.717264591378875951E-15 ) ) ;
#80 = ORIENTED_EDGE ( 'NONE', *, *, #238, .F. ) ;
#81 = CC_DESIGN_APPROVAL ( #5, ( #98 ) ) ;
#82 = CARTESIAN_POINT ( 'NONE',  ( 1.326762908760390675E-13, 1.599999999999997202, 38.00000000000000711 ) ) ;
#83 = APPLICATION_PROTOCOL_DEFINITION ( 'international standard', 'config_control_design', 1994, #11 ) ;
#84 = CARTESIAN_POINT ( 'NONE',  ( 1.312796983405018394E-13, 1.999999999999994893, 37.60000000000000853 ) ) ;
#85 = DATE_AND_TIME ( #66, #109 ) ;
#86 = AXIS2_PLACEMENT_3D ( 'NONE', #89, #161, #207 ) ;
#87 = APPROVAL_STATUS ( 'not_yet_approved' ) ;
#88 = APPROVAL_DATE_TIME ( #106, #21 ) ;
#89 = CARTESIAN_POINT ( 'NONE',  ( 2.793185071074506290E-15, -8.673617379884033007E-17, 0.7999999999999998224 ) ) ;
#90 = PERSON_AND_ORGANIZATION ( #159, #126 ) ;
#91 = AXIS2_PLACEMENT_3D ( 'NONE', #212, #164, #102 ) ;
#92 = COORDINATED_UNIVERSAL_TIME_OFFSET ( 1, 0, .AHEAD. ) ;
#93 = APPROVAL ( #110, 'UNSPECIFIED' ) ;
#94 = ADVANCED_FACE ( 'NONE', ( #17, #243 ), #147, .T. ) ;
#95 = TOROIDAL_SURFACE ( 'NONE', #230, 2.174999999999999822, 2.000000000000000000 ) ;
#96 = CIRCLE ( 'NONE', #206, 1.600000000000001865 ) ;
#97 = DIRECTION ( 'NONE',  ( 4.275831445896958607E-31, 1.000000000000000000, 1.224646799147353207E-16 ) ) ;
#98 = PRODUCT_DEFINITION ( 'UNKNOWN', '', #135, #152 ) ;
#99 = ORIENTED_EDGE ( 'NONE', *, *, #171, .T. ) ;
#100 = DIRECTION ( 'NONE',  ( -3.491481338843133355E-15, 1.224646799147353207E-16, -1.000000000000000000 ) ) ;
#101 = AXIS2_PLACEMENT_3D ( 'NONE', #119, #203, #193 ) ;
#102 = DIRECTION ( 'NONE',  ( 1.000000000000000000, 0.0000000000000000000, -3.717264591378875951E-15 ) ) ;
#103 = ORIENTED_EDGE ( 'NONE', *, *, #174, .F. ) ;
#104 = DIRECTION ( 'NONE',  ( 1.000000000000000000, 0.0000000000000000000, -3.491481338843132566E-15 ) ) ;
#105 = DIRECTION ( 'NONE',  ( 1.000000000000000000, 0.0000000000000000000, -3.469446951953614189E-15 ) ) ;
#106 = DATE_AND_TIME ( #64, #231 ) ;
#107 = CC_DESIGN_DATE_AND_TIME_ASSIGNMENT ( #51, #240, ( #191 ) ) ;
#108 = PERSON_AND_ORGANIZATION ( #159, #126 ) ;
#109 = LOCAL_TIME ( 9, 5, 54.00000000000000000, #29 ) ;
#110 = APPROVAL_STATUS ( 'not_yet_approved' ) ;
#111 = CALENDAR_DATE ( 2021, 15, 11 ) ;
#112 = FACE_OUTER_BOUND ( 'NONE', #139, .T. ) ;
#113 = APPROVAL_PERSON_ORGANIZATION ( #151, #93, #33 ) ;
#114 = CC_DESIGN_PERSON_AND_ORGANIZATION_ASSIGNMENT ( #172, #150, ( #135 ) ) ;
#115 = MANIFOLD_SOLID_BREP ( 'Corps-Déplacer/Copier1[2]', #158 ) ;
#116 = CC_DESIGN_PERSON_AND_ORGANIZATION_ASSIGNMENT ( #236, #68, ( #98 ) ) ;
#117 = CARTESIAN_POINT ( 'NONE',  ( 1.312796983405018394E-13, -4.604671964794048513E-15, 37.60000000000000853 ) ) ;
#118 = DIRECTION ( 'NONE',  ( -4.275831445896958607E-31, -1.000000000000000000, -1.224646799147353207E-16 ) ) ;
#119 = CARTESIAN_POINT ( 'NONE',  ( 5.355373504282529516E-14, 0.0000000000000000000, 15.33839933412612133 ) ) ;
#120 = EDGE_LOOP ( 'NONE', ( #19 ) ) ;
#121 = CIRCLE ( 'NONE', #175, 1.999999999999999556 ) ;
#122 = MANIFOLD_SOLID_BREP ( 'Corps-Déplacer/Copier1[1]', #141 ) ;
#123 = CARTESIAN_POINT ( 'NONE',  ( 2.000000000000027534, 0.0000000000000000000, 7.874297718988162664 ) ) ;
#124 = CARTESIAN_POINT ( 'NONE',  ( 0.2431483474218644469, 0.0000000000000000000, 1.317638090205027313 ) ) ;
#125 = ORIENTED_EDGE ( 'NONE', *, *, #192, .T. ) ;
#126 = ORGANIZATION ( 'UNSPECIFIED', 'UNSPECIFIED', '' ) ;
#127 = FACE_OUTER_BOUND ( 'NONE', #211, .T. ) ;
#128 = DIRECTION ( 'NONE',  ( 3.491481338843133355E-15, -0.0000000000000000000, 1.000000000000000000 ) ) ;
#129 = DIRECTION ( 'NONE',  ( 0.0000000000000000000, 0.0000000000000000000, 1.000000000000000000 ) ) ;
#130 = PERSON_AND_ORGANIZATION ( #159, #126 ) ;
#131 = AXIS2_PLACEMENT_3D ( 'NONE', #196, #145, #79 ) ;
#132 = FACE_OUTER_BOUND ( 'NONE', #72, .T. ) ;
#133 = COORDINATED_UNIVERSAL_TIME_OFFSET ( 1, 0, .AHEAD. ) ;
#134 = UNCERTAINTY_MEASURE_WITH_UNIT (LENGTH_MEASURE( 1.000000000000000082E-05 ), #27, 'distance_accuracy_value', 'NONE');
#135 = PRODUCT_DEFINITION_FORMATION_WITH_SPECIFIED_SOURCE ( 'ANY', '', #6, .NOT_KNOWN. ) ;
#136 = AXIS2_PLACEMENT_3D ( 'NONE', #47, #128, #105 ) ;
#137 = CARTESIAN_POINT ( 'NONE',  ( 2.793185071074506290E-15, -8.673617379884033007E-17, 0.7999999999999998224 ) ) ;
#138 = AXIS2_PLACEMENT_3D ( 'NONE', #217, #129, #13 ) ;
#139 = EDGE_LOOP ( 'NONE', ( #80 ) ) ;
#140 = DIRECTION ( 'NONE',  ( -3.491481338843133355E-15, 1.224646799147353207E-16, -1.000000000000000000 ) ) ;
#141 = CLOSED_SHELL ( 'NONE', ( #94, #28, #54, #73, #32, #70 ) ) ;
#142 = VERTEX_POINT ( 'NONE', #210 ) ;
#143 = ORIENTED_EDGE ( 'NONE', *, *, #174, .T. ) ;
#144 =( NAMED_UNIT ( * ) SI_UNIT ( $, .STERADIAN. ) SOLID_ANGLE_UNIT ( ) );
#145 = DIRECTION ( 'NONE',  ( 3.491481338843133355E-15, -0.0000000000000000000, 1.000000000000000000 ) ) ;
#146 = CC_DESIGN_SECURITY_CLASSIFICATION ( #191, ( #135 ) ) ;
#147 = CYLINDRICAL_SURFACE ( 'NONE', #195, 2.000000000000000000 ) ;
#148 = PERSON_AND_ORGANIZATION_ROLE ( 'classification_officer' ) ;
#149 = PERSON_AND_ORGANIZATION_ROLE ( 'design_owner' ) ;
#150 = PERSON_AND_ORGANIZATION_ROLE ( 'creator' ) ;
#151 = PERSON_AND_ORGANIZATION ( #159, #126 ) ;
#152 = DESIGN_CONTEXT ( 'detailed design', #67, 'design' ) ;
#153 = AXIS2_PLACEMENT_3D ( 'NONE', #20, #100, #97 ) ;
#154 = AXIS2_PLACEMENT_3D ( 'NONE', #233, #4, #104 ) ;
#155 = ORIENTED_EDGE ( 'NONE', *, *, #171, .F. ) ;
#156 = DIRECTION ( 'NONE',  ( -3.491481338843133355E-15, 1.224646799147353207E-16, -1.000000000000000000 ) ) ;
#157 = ORIENTED_EDGE ( 'NONE', *, *, #180, .F. ) ;
#158 = CLOSED_SHELL ( 'NONE', ( #57, #222, #227 ) ) ;
#159 = PERSON ( 'UNSPECIFIED', 'UNSPECIFIED', 'UNSPECIFIED', ('UNSPECIFIED'), ('UNSPECIFIED'), ('UNSPECIFIED') ) ;
#160 =( GEOMETRIC_REPRESENTATION_CONTEXT ( 3 ) GLOBAL_UNCERTAINTY_ASSIGNED_CONTEXT ( ( #134 ) ) GLOBAL_UNIT_ASSIGNED_CONTEXT ( ( #27, #225, #144 ) ) REPRESENTATION_CONTEXT ( 'NONE', 'WORKASPACE' ) );
#161 = DIRECTION ( 'NONE',  ( 3.491481338843133355E-15, -1.224646799147353207E-16, 1.000000000000000000 ) ) ;
#162 = DIRECTION ( 'NONE',  ( 0.0000000000000000000, 1.000000000000000000, 0.0000000000000000000 ) ) ;
#163 = EDGE_LOOP ( 'NONE', ( #177 ) ) ;
#164 = DIRECTION ( 'NONE',  ( 3.491481338843133355E-15, -0.0000000000000000000, 1.000000000000000000 ) ) ;
#165 = CARTESIAN_POINT ( 'NONE',  ( 0.0000000000000000000, 0.0000000000000000000, 0.0000000000000000000 ) ) ;
#166 = CYLINDRICAL_SURFACE ( 'NONE', #69, 0.1749999999999998224 ) ;
#167 = AXIS2_PLACEMENT_3D ( 'NONE', #117, #156, #56 ) ;
#168 = CIRCLE ( 'NONE', #136, 2.000000000000000000 ) ;
#169 = APPROVAL_DATE_TIME ( #48, #93 ) ;
#170 = PERSON_AND_ORGANIZATION ( #159, #126 ) ;
#171 = EDGE_CURVE ( 'NONE', #9, #9, #168, .T. ) ;
#172 = PERSON_AND_ORGANIZATION ( #159, #126 ) ;
#173 = PERSON_AND_ORGANIZATION_ROLE ( 'design_supplier' ) ;
#174 = EDGE_CURVE ( 'NONE', #142, #142, #184, .T. ) ;
#175 = AXIS2_PLACEMENT_3D ( 'NONE', #76, #71, #55 ) ;
#176 = DIRECTION ( 'NONE',  ( 3.491481338843133355E-15, -1.224646799147353207E-16, 1.000000000000000000 ) ) ;
#177 = ORIENTED_EDGE ( 'NONE', *, *, #41, .T. ) ;
#178 = DIRECTION ( 'NONE',  ( 1.000000000000000000, 0.0000000000000000000, -3.491481338843133355E-15 ) ) ;
#179 = PRODUCT_RELATED_PRODUCT_CATEGORY ( 'detail', '', ( #6 ) ) ;
#180 = EDGE_CURVE ( 'NONE', #3, #3, #46, .T. ) ;
#181 = EDGE_LOOP ( 'NONE', ( #143 ) ) ;
#182 = CARTESIAN_POINT ( 'NONE',  ( 1.326762908760390675E-13, -4.653657836759942730E-15, 38.00000000000000711 ) ) ;
#183 = CARTESIAN_POINT ( 'NONE',  ( 0.0000000000000000000, 0.0000000000000000000, 0.0000000000000000000 ) ) ;
#184 = CIRCLE ( 'NONE', #131, 0.1749999999999998224 ) ;
#185 = FACE_OUTER_BOUND ( 'NONE', #226, .T. ) ;
#186 = CC_DESIGN_PERSON_AND_ORGANIZATION_ASSIGNMENT ( #201, #148, ( #191 ) ) ;
#187 = COORDINATED_UNIVERSAL_TIME_OFFSET ( 1, 0, .AHEAD. ) ;
#188 = APPROVAL_PERSON_ORGANIZATION ( #170, #5, #52 ) ;
#189 = PRODUCT_DEFINITION_SHAPE ( 'NONE', 'NONE',  #98 ) ;
#190 = SHAPE_DEFINITION_REPRESENTATION ( #189, #8 ) ;
#191 = SECURITY_CLASSIFICATION ( '', '', #202 ) ;
#192 = EDGE_CURVE ( 'NONE', #59, #59, #16, .T. ) ;
#193 = DIRECTION ( 'NONE',  ( 1.000000000000000000, 0.0000000000000000000, -3.469446951953614189E-15 ) ) ;
#194 = EDGE_LOOP ( 'NONE', ( #37 ) ) ;
#195 = AXIS2_PLACEMENT_3D ( 'NONE', #183, #140, #61 ) ;
#196 = CARTESIAN_POINT ( 'NONE',  ( 2.793185071074504318E-15, 0.0000000000000000000, 0.7999999999999992673 ) ) ;
#197 = CARTESIAN_POINT ( 'NONE',  ( -4.275831445896957731E-31, 1.499759782661857608E-32, -1.224646799147353207E-16 ) ) ;
#198 = DIRECTION ( 'NONE',  ( -3.491481338843133355E-15, 1.224646799147353207E-16, -1.000000000000000000 ) ) ;
#199 = CC_DESIGN_PERSON_AND_ORGANIZATION_ASSIGNMENT ( #130, #173, ( #135 ) ) ;
#200 = CALENDAR_DATE ( 2021, 15, 11 ) ;
#201 = PERSON_AND_ORGANIZATION ( #159, #126 ) ;
#202 = SECURITY_CLASSIFICATION_LEVEL ( 'unclassified' ) ;
#203 = DIRECTION ( 'NONE',  ( 3.491481338843133355E-15, -0.0000000000000000000, 1.000000000000000000 ) ) ;
#204 = FACE_OUTER_BOUND ( 'NONE', #26, .T. ) ;
#205 = FACE_OUTER_BOUND ( 'NONE', #194, .T. ) ;
#206 = AXIS2_PLACEMENT_3D ( 'NONE', #182, #198, #162 ) ;
#207 = DIRECTION ( 'NONE',  ( -4.275831445896958607E-31, -1.000000000000000000, -1.224646799147353207E-16 ) ) ;
#208 = EDGE_LOOP ( 'NONE', ( #99 ) ) ;
#209 = PLANE ( 'NONE',  #39 ) ;
#210 = CARTESIAN_POINT ( 'NONE',  ( 0.1750000000000025979, 0.0000000000000000000, 0.7999999999999986011 ) ) ;
#211 = EDGE_LOOP ( 'NONE', ( #43 ) ) ;
#212 = CARTESIAN_POINT ( 'NONE',  ( 2.793185071074504318E-15, 0.0000000000000000000, 0.7999999999999992673 ) ) ;
#213 = CARTESIAN_POINT ( 'NONE',  ( 4.600508803299760698E-15, 0.0000000000000000000, 1.317638090205028201 ) ) ;
#214 = CC_DESIGN_PERSON_AND_ORGANIZATION_ASSIGNMENT ( #108, #149, ( #6 ) ) ;
#215 = CONICAL_SURFACE ( 'NONE', #167, 1.999999999999999556, 0.7853981633974485010 ) ;
#216 = CC_DESIGN_APPROVAL ( #21, ( #135 ) ) ;
#217 = CARTESIAN_POINT ( 'NONE',  ( 0.0000000000000000000, 0.0000000000000000000, 0.0000000000000000000 ) ) ;
#218 = CALENDAR_DATE ( 2021, 15, 11 ) ;
#219 = PLANE ( 'NONE',  #58 ) ;
#220 = APPROVAL_STATUS ( 'not_yet_approved' ) ;
#221 = AXIS2_PLACEMENT_3D ( 'NONE', #213, #45, #44 ) ;
#222 = ADVANCED_FACE ( 'NONE', ( #25, #185 ), #166, .T. ) ;
#223 = EDGE_CURVE ( 'NONE', #7, #7, #235, .T. ) ;
#224 = FACE_BOUND ( 'NONE', #229, .T. ) ;
#225 =( NAMED_UNIT ( * ) PLANE_ANGLE_UNIT ( ) SI_UNIT ( $, .RADIAN. ) );
#226 = EDGE_LOOP ( 'NONE', ( #157 ) ) ;
#227 = ADVANCED_FACE ( 'NONE', ( #127 ), #209, .T. ) ;
#228 = DIRECTION ( 'NONE',  ( 1.000000000000000000, 0.0000000000000000000, -3.491481338843132961E-15 ) ) ;
#229 = EDGE_LOOP ( 'NONE', ( #242 ) ) ;
#230 = AXIS2_PLACEMENT_3D ( 'NONE', #241, #18, #178 ) ;
#231 = LOCAL_TIME ( 9, 5, 54.00000000000000000, #133 ) ;
#232 = VERTEX_POINT ( 'NONE', #82 ) ;
#233 = CARTESIAN_POINT ( 'NONE',  ( -1.710332578358783092E-30, 0.0000000000000000000, -4.898587196589412829E-16 ) ) ;
#234 = VERTEX_POINT ( 'NONE', #84 ) ;
#235 = CIRCLE ( 'NONE', #154, 0.1749999999999998224 ) ;
#236 = PERSON_AND_ORGANIZATION ( #159, #126 ) ;
#237 = DATE_AND_TIME ( #200, #15 ) ;
#238 = EDGE_CURVE ( 'NONE', #232, #232, #96, .T. ) ;
#239 = FACE_OUTER_BOUND ( 'NONE', #2, .T. ) ;
#240 = DATE_TIME_ROLE ( 'classification_date' ) ;
#241 = CARTESIAN_POINT ( 'NONE',  ( 2.793185071074505107E-15, 0.0000000000000000000, 0.7999999999999994893 ) ) ;
#242 = ORIENTED_EDGE ( 'NONE', *, *, #238, .T. ) ;
#243 = FACE_OUTER_BOUND ( 'NONE', #208, .T. ) ;
ENDSEC;
END-ISO-10303-21;
